Acordes para guitarra

Indice Venturers

guitartabs

     Wipe Out tab by Venturers




Wipe Out Tab


Here's my interpretation of wipeout(not to be confused with the other
ibanez person that posted tabs for wipeout) it's pretty easy:

e--------------------------------
b0-3-4-5-5-5-3-0-0-3-4-5-5-5-3-0-
g--------------------------------
d--------------------------------
a--------------------------------
e--------------------------------repeat then:

e0-3-4-5-5-5-3-0-0-3-4-5-5-5-3-0-
b--------------------------------
g--------------------------------
d--------------------------------
a--------------------------------
e-------------------------------- then play 1st part again then play:

e0-3-5--7-7-7-5-0-0-0-0-----------------------------------------
b-----------------------7-7-7-5-0-0--3-4-5-5-5-3-0-3-0-3-0-3-0-0
g---------------------------------------------------------------
d---------------------------------------------------------------
a---------------------------------------------------------------
e---------------------------------------------------------------

i kinda faked the last couple of notes but you get the idea, after
the last few notes just start over again from the beginning



References

Acordes para guitarra
x

Todo acerca de Venturers