Acordes para guitarra

Indice Superdrag

guitartabs

   Superdrag
     Way Down Here Without You tab by Superdrag




Way Down Here Without You Tab

   votes]

Artist  : Superdrag
Title   : Way Down Here Without You

transcribed by Aldoni Ajawaila
re- checked by toM Ajawaila



 e |-----------4---4-------4---4-------2-------2-------0---0------------------|
 B |-----------5---5-------5---5-------5-------5-------0---0------------------|
 G |----2-/-4----4---4---3---3---3---2---2---2---2---1---1---1----------------|
 D |--------------------------------------------------------------------------|
 A |--------------------------------------------------------------------------|
 E |--------------------------------------------------------------------------|



 e |---0----0----0----0-----0----0----0----0--|
 B |---0----2----1----0-----3----2----1----0--|
 G |---1----2----2----1-----1----2----2----1--|
 D |---2----2----2----2-----2----2----2----2--|
 A |---2----0----0----2-----2----0----0----2--|
 E |---0--------------0-----0--------------0--|



 e |-----2-----2---2----------2-----2----2-----------------------------------|
 B |-----2-----5---4----------2-----5----4-----------------------------------|
 G |-----2-----2---2----------2-----2----2-----------------------------------|
 D |-----4-----4---4----7--6--4-----4----4-----------------------------------|
 A |-----4-----2---2----7--6--4-----2----2-----------------------------------|
 E |-----2--------------5--4--2----------------------------------------------|



 e |-----0-----4-----4-----4--------2----2---2-------------------------------|
 B |-----0-----4-----5-----4--------2----5---4-------------------------------|
 G |-----1-----4-----6-----4--------2----2---2-------------------------------|
 D |-----2-----6-----6-----6--6--5--4----4---4-------------------------------|
 A |-----2-----6-----4-----6--6--5--4----2---2-------------------------------|
 E |-----0-----4-----------4--4--3--2----------------------------------------|


 e |-----0---0---0---4--  --0---0---0---0--  --0---0---0---2--  --0---0---0---2
---2-------|
 B |-----2---1---0---4--  --2---1---2---3--  --2---1---0---1--  --2---1---0---5
---4-------|
 G |-----2---0---1---4--  --2---0---1---1--  --2---0---1---1--  --2---0---1---2
---2-------|
 D |-----2---2---2---6--  --2---2---2---2--  --2---2---2------  --2---2---2---4
---4-------|
 A |-----0---3---2---6--  --0---3---2---2--  --0---3---2------  --0---3---2---2
---2-------|
 E |-------------0---4--  ----------0---0--  ----------0------  ----------0----
-----------|



and ive got a reason to feel like i been had
to see you smile at me again

i dont know, since youve been gone
what im supposed to do way down here without you

i dont know, since youve been gone
what im supposed to do way down here without you


and it makes me feel so afraid of the unknown
to see you smile at me again

i dont know, since youve been gone
what im supposed to do way down here without you

i dont know, since youve been gone
what im supposed to do way down here without you

You still mean a lot to me
More than a memory to me, yeah
More than a memory to me


You should try until your fingers bleed...=p

   TabRobot


References

Acordes para guitarra
x

Todo acerca de Superdrag