Acordes para guitarra

Indice Sui Generis

guitartabs

===================================================
* Sui Generis                                     *
* CONFESIONES DE INVIERNO                         *
* ---???---                                       *
* ---???--- ()                                    *
============================================TAB====

Introducción 
    
    D                                       G/B           D      C  G/B  A7
e |----------2h3p2-------------2h3p2---------3------------2------0---3---0--------------|
b |------3--------3--------3---------3-------3------------3------1---3---2--------------|
g |----2---2--------2----2-------------2---0---0--------2---2----0---0---0--------------|
D |--0-----------------0------------------------------0---------------------------------|
A |--------------------------------------2-----------------------3---2---0--------------|
E |-------------------------------------------------------------------------------------|
                                                                             X 2

RIFF 1
            

e |-------2h3p2----------3--------2-----0---3---0-----------2h3p2----|
b |---3---------3--------3--------3-----1---3---2-------3---------3--|
g |-2---2---------2----0---0----2---2---0---0---0-----2---2---------2|
D |---------------------------0---------------------0----------------|
A |------------------2------------------3---2---0--------------------|
E |------------------------------------------------------------------|

RIFF 2
          
e |-------3--------3-------------2h3p2----------|
b |-------3--------3---------3---------3--------|
g |-----0---0----0---0-----2---2---------2------|
D |----------------------0----------------------|
A |--2---------1--------------------------------|
E |---------------------------------------------|
 
RIFF 3
    
e |-------0---------0-------------2h3p2---------|
b |-------1---------2---------3---------3-------|
g |-----0---0-----0---0-----2---2---------2-----|
D |-------------2---------0---------------------|
A |--3------------------------------------------|
E |---------------------------------------------|

RIFF 4
   
e |-------0--------3---------0---------0-------|
b |-------0--------0---------2----3p2--2-------|
g |-----0---0----0---0-----0---0-------0-------|
D |---0------------------2-------------2-------|
A |--------------------------------------------|
E |------------3-------------------------------|


 
INTRO

RIFF 1
Me echo de su cuarto gritandome: 'No tienes profesion'

RIFF 1
Tuve que enfrentrarme a mi condicion, en invierno no hay sol

RIFF 2                                   RIFF 3
Y aunque digan que va a ser muy facil es muy duro poder mejorar

RIFF 2					RIFF 4
Hace frio y me falta un abrigo y me pesa el hambre de esperar

(en las siguientes estrofas se vuelven a repetir los riffs de la misma manera)

Quien me dará algo para fumar o casa en que vivir

Se que entre las calles debes estar pero no se partir

Y la radio nos confunde a todos, sin dinero la pasare mal

Si se comen mi carne los lobos no podre robarles la mitad

Dios es empleado en un mostrador: da para recibir

Quien me dar  un credito mi Senor, solo se sonreir

Y tal vez espere demasiado, quisiera que estuvieras aqui

Cerraran las puertas de este infierno y es posible que me quiera ir

Consegui licor y me emborrache, en el bano de un bar

Fui a dar a la calle de un puntapie y me senti muy mal

Y si bien yo nunca habia bebido en la carcel tuve que acabar

La fianza la pago un amigo, las heridas son del oficial

Hace cuatro anos que estoy aqui y no quiero salir

Ya no paso frio y soy feliz, mi cuarto da al jardin

Y aunque a veces me acuerdo de ella, dibuje su cara en la pared

Solamente muero los domingos y los lunes ya me siento bien

===================================================
Colaboracion de fernando venanti



Acordes para guitarra
x

Todo acerca de Sui Generis