Acordes para guitarra

Indice Strong Bad

guitartabs

     Trogdor tab by Strong Bad




Trogdor Tab


   911Tabs.Com
Key-
 _ = Palm mute
 b = Bend
 r = release



This song is freaking awesome.  Tune to drop-D.
(If you don't know what that is, it's DADGBe.)

Intro/Chorus:

E|--------------------------------------|
B|--------------------------------------|
G|--------------------------------------|
D|--------------------------------------| play 2X
A|----8------5------8-0-5-0-3-0---------|
D|00008--00005--00008-0-5-0-3-0---------|

Verse

Guitar 1 (Lead)
E|--------------------------------10-10-|
G|--10--8--10--8--6-----10-8-10-8-------|
B|------------------7-------------------|  Note, this is more audible on the
D|--------------------------------------|  CD version.  Play 2X
A|--------------------------------------|
D|--------------------------------------|

Guitar 2 (Rhythm)
E|--------------------------------------|
G|--------------------------------------|
B|--------------------------------------|
D|--------------------------------------|   play 4X
A|007005003005007-7---------------------|
D|007005003005007-7---------------------|
  _________________

Guitar 3 (Only on CD version)

E|--8--6--8--6--5-1---8--6--8--6--10-10-|
G|--------------------------------------|
B|--------------------------------------|
D|--------------------------------------|   Play after guitar 1 has played its
riff
A|--------------------------------------|   one time.
D|--------------------------------------|

Repeat Chorus


Verse 2

E|--------------------------------------|
G|--------------------------------------|
B|--------------------------------------|
D|--------------------------------------|  play 3X
A|057057057057057-----------------------|
D|057057057057057-----------------------|

E|--------------------------------------|
G|--------------------------------------|
B|--------------------------------------|
D|--------------------------------------|
A|057057--------------------------------|
D|057057--------------------------------|

Repeat Chorus

The site version ends here.

For the CD version, there is a solo here, but I don't have tabs for it.
I'll submit it separately once I figure it out.

After the solo, repeat Verse One, only guitar one doesn't play first half of it
s riff
the first time through.

Repeat Chorus.



References

Acordes para guitarra
x

Todo acerca de Strong Bad