Acordes para guitarra

Indice Straylight Run

guitartabs

   Night Intro Tab by Straylight Run
     Existentialism On Prom Night Intro tab by Straylight Run




Existentialism On Prom Night Tab


   Existentialism On Prom Night Tab by Straylight Run,
   911Tabs.Com
-----------------------------------------------------------------------------
        EXISTENSIALISM ON PROM NIGHT- Straylight Run
-----------------------------------------------------------------------------
Tabbed by:David Pantele

Tuning:standard

e|------2-------------0-----------------0---------0--------\
B|-----2--2---------3---3-------------0--0-------0-0------- \
G|---2-----2------2------2----------2-----2-----1---1------  \      4
D|---------------------------------------------------------  /    TIMES
A|--------------------------------------------------------- /
E|-2------------0----------------0-------------0-----------/

   TabRobot


References

Acordes para guitarra
x

Todo acerca de Straylight Run