Acordes para guitarra

Indice Stranglers

guitartabs

     Peaches bass tab by Stranglers




Peaches Bass Tab

   votes]

BAND: Stranglers
SONG: Peaches



G|-------------------------------------|
D|-------------------------------------|
A|-4---2-----------4---2---------------|
E|---4---4-4-4-2-0---4---4-4-4-2-0-----|

G|-----------------------------------------|
D|-----------------------------------------|
A|-4-4-4-4-2-2-----------------------------|
E|-------------4-4-4-4-2-------------------|

THIS IS IT - the proper version! every one always plays it in the wrong key,
this is as simple as it really is!!!!



References

Acordes para guitarra
x

Todo acerca de Stranglers