Acordes para guitarra

Indice Strait Up

guitartabs

     Angels Son tab by Strait Up




Angels Son Tab


This is only the beginning of Angel's Son, i haven't figured out the
rest of the song yet. This is a cool song!!!!

Intro:
e--------------------------------------------------------------------|
b--------------------------------------------------------------------|
g---------5-----------5-----------5-----------5-----5-----5----------|
d------0-----0-----0-----0-----0-----0-----0-----0-----0-----0-------|
a---3-----------3----------------------------------------------------|
E---------------------------3-----------4----------------------------|

e------------------------------------------------------------------|
b------------------------------------------------------------------|
g---------5----hold------------------------------------------------|
d------0-----------------------------------------------------------|
a------------------------------------------------------------------|
E---4--------------------------------------------------------------|

That's all i've got so far, so enjoy.

P.S If someone could figure out the rest of the song that would really
help




References

Acordes para guitarra
x

Todo acerca de Strait Up