Acordes para guitarra

Indice Stormwitch

guitartabs

     Rats In The Attic tab by Stormwitch




Rats In The Attic Tab


Title: Rats In The Attic
Artist: Stormwitch


Standard Tuning

Riff A (there are some slight variations to this riff at times)
|-------------------------------------------------|
|--------------6-6-6-6----------------------------|
|-----7-5------5-5-5-5-5------7-5------2---4---5--|
|-----7-5--------------5------7-5------2---4---5--|
|-0-0------0-0------------0-0------0-0---0---0----|
|-------------------------------------------------|

Riff B

|--------------------------|
|--------------------------|
|--------------------------|
|--------7-----------9--7--|
|--7--9--5--7--7--9--7--5--|
|--5--7-----5--5--7--------|



References

Acordes para guitarra
x

Todo acerca de Stormwitch