Acordes para guitarra

Indice Stephen Bishop

guitartabs

   Bishop
     It Might Be You tab by Stephen Bishop




It Might Be You Tab


#----------------------------------PLEASE NOTE---------------------------------
#
#This file is the author's own work and represents their interpretation of the
#
#song. You may only use this file for private study, scholarship, or research.
#
#------------------------------------------------------------------------------
#



Artist:Stephen Bishop
Song:It might be you
Tabbed by:Oscar Ramos

Tuning: EADBGe (Standard)

Intro:

e|-------3-----5-7-3-|-------3-----5-7-3-|-------3-----5-7-3-|-------3-----5-3-
----3---| 2x
B|---3-----3---------|---3-----3---------|---3-----3---------|---3-----3-------
3-5-----|
G|-0---0-----0-------|-4---4-----4-------|-5---5-----5-------|-----5-----5-----
--------|
D|-------------------|-------------------|-------------------|-0---------------
--------|
A|-------------------|-------------------|-------------------|-----------------
--------|
E|-------------------|-------------------|-------------------|-----------------
--------|
                ~  ~                ~  ~
e|-----3---2-3/10-10-|-------------10-10-|-------------10-10-12----------------
-|
B|---3---3-----------|-----8---7-8-------|-----8---7-8----------13-12-10-------
-|
G|-------------------|---0---0-----------|---0---0-----------------------12-12-
-|
D|-------------------|-------------------|----------------0--------------------
-|
A|-------------------|-------------------|-------------------------------------
-|
E|-3-----------------|-7-----------------|-8-----------------------------------
-|

Verse:

e|---------|---------------|-------|---------|-3^---------|---------|----------
-------|
B|-0-----0-|-----0-1-3-0---|---0---|-------1-|-1--------0-|-------0-|-----0-1-3
-------|
G|-----0---|-0-2---------0-|-2---0-|-----0---|-2--0-------|-----0---|-0-2------
-2-0---|
D|---0-----|---------------|-------|---2-----|-0----2-0---|---0-----|----------
-------|
A|---------|-----2---------|-3-----|-3-------|------------|---------|-----2----
-------|
E|-3-------|---------------|-------|---------|------------|-3-------|----------
-------|

 sturm
e|-2-3-0-|-------0-|--------0-|-0-2-2-3---|---------|-----------|-------|-0----
|-0^-xx--|
B|-------|-----0---|------0---|---------3-|-------3-|---1-0-3-0-|---0---|--0---
|-2--xx--|
G|-------|---0-----|----2-----|-----------|-----0---|-----------|-2---0-|---0--
|-0--xx--|
D|-------|---------|----------|-----------|---0-----|-1---------|-------|----0-
|-2--xx--|
A|-3-----|-3-------|-4--------|-----2-----|-2-------|-----------|-------|------
|-0--xx--|
E|-------|---------|----------|-----------|---------|-----------|-0-----|------
|----xx--|

e|-------------------|-------2-|-----|---------------|-------2-|-------2-|-----
--0-|
B|-----1-0-1-0-3-0---|-----3---|---0-|-1-0-1-0-3-0---|-----3---|-----0---|-----
0---|
G|---0-------------2-|---2-----|-2---|-------------2-|---2-----|---2-----|---0-
----|
D|-2-----------------|-0-------|-----|---------------|-0-------|-1-------|-----
----|
A|-----0-------------|---------|-2---|-0-------------|---------|---------|-----
----|
E|-------------------|---------|---0-|---------------|---------|---------|-0---
----|

Refrain:

e|---0-2-2-3-2-----|---------2-|-0-0-1-0-----|---------0-|---------------|-----
----3--------|
B|-0-----------0-3-|-------3---|-----------1-|-------1---|-1-3-4-4-3---0-|-----
--0---0------|
G|-----------------|-----2-----|---------2---|-----0-----|-----------2---|-----
0-------0----|
D|-----------------|---4-------|-0-----------|---2-------|---------------|---0-
----------0--|
A|-----------------|-2---------|-------------|-0---------|-----3---------|-----
-------------|
E|-------0---------|-----------|-------------|-----------|---------------|-3---
-------------|

e|---------0-------|-------0-|---0-2-3-3-5-0-2-|-------2-|---0-1-1-3---0-|
B|-------3---3-----|-----0---|-0---------------|-----2---|-3---------3---|
G|-----2-------2---|---0-----|-----------------|---2-----|-----0---------|
D|---0-----------0-|---------|-----------------|-0-------|---------------|
A|-----------------|---------|-------0---------|---------|---------------|
E|-2---------------|-0-------|-----------------|---------|---------------|
                    sturm
e|---------0-------|-0--|-----|---------------|-------2-|-----|----------------
|
B|-------0---0-----|-0--|---0-|-1-0-1-0-3-0---|-----3---|---0-|-1-0-1-0-3-0----
|
G|-----0-------0---|-0--|-2---|-------------2-|---2-----|-2---|-------------2--
|
D|---2-----------2-|-2--|-----|---------------|-0-------|-----|----------------
|
A|-3---------------|-3--|-2---|-0-------------|---------|-2---|-0--------------
|
E|-----------------|----|---0-|---------------|---------|---0-|----------------
|

e|-------2-|---------|
B|-----3---|-0-------|
G|---2-----|---2-0-0-|
D|-0-------|---------|
A|---------|---------|
E|---------|---------|

e|-----3---2-3/10-10-|-------------10-10-|-------------10-10-12----------------
-|repeat 2x and end at G
B|---3---3-----------|-----8---7-8-------|-----8---7-8----------13-12-10-------
-|
G|-------------------|---0---0-----------|---0---0-----------------------12-12-
-|
D|-------------------|-------------------|----------------0--------------------
-|
A|-------------------|-------------------|-------------------------------------
-|
E|-3-----------------|-7-----------------|-8-----------------------------------
-|


Legend:

| x tap
| /  slide up
| p pause 2 counts
| ~  vibrato

===============================================================================

add me friendster or ym...

===============================================================================



References

Acordes para guitarra
x

Todo acerca de Stephen Bishop