Acordes para guitarra

Indice Steel Dragon

guitartabs

     Stand Up tab by Steel Dragon




Stand Up Tab


~ = tremelo
* = Smash your guitar over your amp and jump into the crowd
eb---------------------------------------------------------
Bb---------------------------------------------------------
Gb---------------------------------------------------------
Db---------------------------------------------------------
Ab----------------2-2---2-2---2-2--------------------------
Bb--6--5--4--3----0-0---0-0---0-0--------------------------
    with wah

eb---------------------------------------------------------
Bb---------------------------------------------------------
Gb---------------------------------------------------------
Db---------------------------------------------------------
Ab--2-2--2-2--2-2------------------------------------------
Bb--0-0--0-0--0-0---0--3--5--5~---3~-----------------------


    repeat
eb-------------------------------|-------------------------------|
Bb-------------------------------|-------------------------------|
Gb-------------------------------|-------------------------------|
Db-------------------------------|-------------------------------|
Ab-0-2-2--0-2-2--0-2-2--0-2-0-2--|-2-4-4--2-4-4--2-4-4--2-4-2-4--|
Bb-------------------------------|------------------------------*|
play this^ before Zakk goes off and does his solo



References

Acordes para guitarra
x

Todo acerca de Steel Dragon