Acordes para guitarra

Indice Stanley Clarke

guitartabs

     Jamaican Boy bass tab by Stanley Clarke




Jamaican Boy Bass Tab


stanley clarke
jamaican boy
the bass-ic collection


intro/chorus
pop all notes

g--9h11---13p11p9----7-7---9--7--6--6^p4--4-6-4-2-----------
d-----------------------------------------------------------
a----------------------------------------------------3p2--0-
e-----------------------------------------------------------

g-----------------------------------
d-----------------------------------
a-5---------------5-5-3-5-----------
e-----0h3^---5----------------------

I havnt tabbed the other parts of the song but these are the two main parts,
listen to the song to get the timing.




References

Acordes para guitarra
x

Todo acerca de Stanley Clarke