Acordes para guitarra

Indice Soda Stereo

guitartabs

===================================================
| Soda Stereo                                     |
| JET SET                                         |
| Gustavo cerati/ficiccia                         |
| ---???--- ()                                    |
============================================BAS====

G-----------------------------------------
D---------------------55------------------
A---5-7-5---5-7---5-7----7-5--7-555-7---44
E-5-------5-----5-----------5---------5---

G--------------------------------------------
D----------------77---77---------------------
A------55-----------5----5------55-----------
E-55-7----7-55-7-----------55-7----7-55---555

G-----------------------------------------------------
D----------------7575---------------------------------
A------55------------------55----------------55-------
E-55-7----7-55-7------55-7----7-55-7-55-55-7----7-55-7
sigue...
G----------------------
D-77------------------7
A----5------55---------
E------55-7----7-55-7--

G-7-5-----------------|
D-----7-5---------7---|
A---------7-5---------|  x3
E-------------7-5---55|

G-7-5-----7/5-7-5---7---7---757---757-|-777777
D-----7-5-----------------------------|-------
A-----------------5---5---5-----5----5|-------
E-------------------------------------|-------
                  todas las veces ke    lo he
                   sea necesario       logrado

G-14-15-16-17-18-19-20
D---------------------
A---------------------
E---------------------
es el sueño de mi vida

G-16-14-------14-12---------|----------------------------
D-------16-14-------14-12-14|-/131313----13--------------
A---------------------------|---------14----14/6666657575
E---------------------------|----------------------------

G---7---7---7---757---757---757|-77777
D------------------------------|------
A-5---5---5---5-----5-----5----|------
E------------------------------|------
  todas las veces ke sea neces.| nena por favor...

G---------------------------------------------
D------------------------7-9-7----------------
A---5-----7-5-----7-9-7-------------55-77-99-7
E-5---7-5-----5-7-------7------7-55-----------
el show
debe seguir

G--------------| ------------|
D--------------| ------------|
A----77-66-55--| -88-77-66-55|x2
E-77----------5| ------------|

G----------7
D-------55--
A-55-77-----
E-----------

cierre
G-------
D-------
A-------
E--5---5
las partes ke no nombro son porke se repiten en algun 
momento... espero ke les sirva
ante dudas o correcciones eskribanme a 

===================================================
Colaboracion de Martín Rey



Acordes para guitarra
x

Todo acerca de Soda Stereo