Acordes para guitarra

Indice Soda Stereo

guitartabs

===================================================
* Soda Stereo                                     *
* ENTRE CANIBALES                                 *
* Gustavo Cerati/Charly Alberti                   *
* Cancion Animal (1990)                           *
===================================================

INTRO
|--------------------------------------------------2------2------2-------2-|
|---------------------------------------------1----3-1xxxx3-1xxxx3-1xxxx-3-|
|---------------------------------------------3----2-3xxxx2-3xxxx2-3xxxx-2-|
|---------------------------------------------2----0-2xxxx0-2xxxx0-2xxxx-0-|
|7--0-2-3---5----------7--0-2-3---5-----------3------3------3------3-------|
|-------------2-3-4-----------------2-3-4----------------------------------|
                                                                              
                                        PRE-CHORUS
|--------------------------------------|-------------------------------------
|--------------------------------------|-1-1-1-x-1--1111--3-3-3-x-3--3333----
|--------------------------------------|-3-3-3-x-3--3333--5-5-5-x-5--5555----
|--------------------------------------|-2-2-2-x-2--2222--4-4-4-x-4--4444----
|7--0-2-3---5--------7--0-2-3---5------|-3-3-3-x-3--3333--5-5-5-x-5--5555----
|-------------2-3-4---------------2-3-4|-------------------------------------
 Una eternidad.....                      Lento....

---------|
-55555555|
-77777777|
-66666666|
-77777777|
---------|
                                                                              
CHORUS
------0---2-2-0------------|--------------------------------------------------
--1-1-0---3-3-1------------|--------------------------------------------------
--2-2-0---2-2-0------------|--------------------------------------------------
--2-2-0---0-0-2------------|--------------------------------------------------
------2-------3------------|--------------------------------------------------
------3--------------------|--------------------------------------------------
 Come de mi......                                                             

The riffs for the Pre-chorus and The Chorus are the correct Chords but the
rithym should be added listen to the CD to get the correct rithym.

===================================================
Colaboracion de  Pepe Senna



Acordes para guitarra
x

Todo acerca de Soda Stereo