Acordes para guitarra

Indice Soda Stereo

guitartabs

===================================================
* Soda Stereo                                     *
* ENTRE CANIBALES                                 *
* Gustavo Cerati/Charly Alberti                   *
* Cancion Animal (1990)                           *
===================================================

Esta es la versión que tengo de este tema de Soda , 
si tienen alguna sugerencia o ven que algo no cuadra 
por favor escribanme!!! y asi no me quedo con el error . 


H:Hammer   P:Pull off    b:bend     r:release   sl:slide


Intro :

  Am        D            Am
+-----------2---2--3--2------+
|--0--1--0--3---3--3--3--1---|
|--2--2--2--2---2--2--2--2---|
|--2--2--2--0---0--0--0--2---|
|--0--0--0-------------------|
+----------------------------+

  Em C D Dsus4 D Am  2X  luego

  Em C D Dsus4 D C    D C  D C  D


Verse I
  
    Em      Bm      D5           A5  G5
Una eternidad , espere este instante 
         Em    Bm      D5         C5   
y  no lo dejare deslizar en recuerdos viejos 
D5                            Em
y en balas razantes que matan 


CHORUS:

Am   D Dsus4 D Em      Am    Am D Dsus4 D Em
Ahhh  come de  mi come de mi carne         

Am Dsus2  D Dsus4 D Em         Am      D Dsus4 D Am 
Ahhh           entre canibales 

Em   D Dsus4 D Am             Em Am   D Dsus4 D Em
Ahhh tomate el tiempo en desmenuzarme  

Em Dsus2  D Dsus4 D Em           C     D C  D C   D
Ahhh               entre canibales 


Verse II


      Em      Bm      D5           A5  G5
Entre canibales el dolor es veneno nena 
         Em    Bm      D5         C5   
y no sentiras hasta el fin mientras te muevas lento 
D5                            Em
y jadees el nombre que mata


CHORUS

GUITAR  SOLO :


+-------/18--------17--15-----15------14-----11-----10-----7-----5----+
|--/15--------/12----------11-----10------8------6------5-----3-------|
|---------------------------------------------------------------------|
|---------------------------------------------------------------------|
|---------------------------------------------------------------------|
+---------------------------------------------------------------------+
        H  P
+--5--4-/5\-4---------------------------------------------------------+
|--------------5--3---------------------------b--b-r--P-------b-------|
|--------------------5--3-----------------3--5/--5/\5-\3-----5/-3-----|
|--------------------------5--3-----3--5------------------5--------5--|
|--------------------------------5------------------------------------|
+---------------------------------------------------------------------+

+--------------------------22------21------------sl-------------------+
|---b---b---b---b---b--19------17------16--15--16\---.----------------|
|--9/--9/--9/--9/--9/--------------------------------5--3-----------3-|
|----------------------------------------------------------5--3--5----|
|---------------------------------------------------------------------|
+---------------------------------------------------------------------+

  b r
+-5/\5---b----------------------------sl---------------b-rb-r-24/-24/-+
|-------8/--5---3---------------3------/8----19-17-15-15/\/\----------|
|-----------------5-3--sl-sl------5-3-----17--------------------------|
|-------------5--------5/8\---5---------------------------------------|
|---------------------------------------------------------------------|
+---------------------------------------------------------------------+

===================================================
Colaboracion de  Juan D Bueno 



Acordes para guitarra
x

Todo acerca de Soda Stereo