Acordes para guitarra

Indice Soda Stereo

guitartabs

===================================================
| Soda Stereo                                     |
| EL TIEMPO ES DINERO                             |
| Cerati                                          |
| Soda stereo (no se)                             |
============================================BAS====

bueh es una tab facil de hacer
espero ke no les cause problemas :)

G----------------|
D-------3--------|
A----55---0-5-3-5|  X4 intro
E-55-------------|

a esta parte la voy a llamar '1' cada vez ke lo señalo 
hay ke hacer exactamente lo siguiente:
G----------------------------------7---7---7
D-7777-5555-4444-----7777-5555--------------
A----------------555-----------555---5---5--
E-------------------------------------------
 estan tocando justo ahi...

G---------------------------------------
D---------------------------------------
A---------------------------------------
E-5555-3333-5555-333-555---0---0---0---3
 cuidado kon...            uooouooo....

intro X4

G-----2222------222---------------
D---------------------------------
A---------------------------------
E-333------3333------0---0---0---3
 si no andas         solo esa falta
 despierta...        de amoooor...

intro X4
'1'
despues hace:

G-------------------------------          G--------|
D----------77-77-77-7/9\7------- y        D--------|
A-77-77-77----------------777777 despues  A-5-----5| X4
E-------------------------------          E---3-4--|

solo de organo: (se divide en dos partes)
1) '1'
2) (cambia cuando cambia el ritmo)

G----9---7---|
D------------|
A-77---7---55| X4
E------------|

G-----------------------
D-----------------------
A-----------------------
E-5--3--5--3--5--3--5--3
 cuidado con...

intro X4
'1' X2
solo de bajo o salida del tema:

G------------------------------------------------------
D------------------------------------------------------
A-535/757/979999799995535/757/1717151717517171715171717
E------------------------------------------------------

G--------------
D--------------
A--------------
E-0---0---0---3

espero ke les sirva ante dudas o correcciones 

===================================================
Colaboracion de Martín Rey



Acordes para guitarra
x

Todo acerca de Soda Stereo