Acordes para guitarra

Indice Soda Stereo

guitartabs

===================================================
| Soda Stereo                                     |
| UN MILLON DE A~OS LUZ                           |
| Cerati/Bosio/Alberti                            |
| ---???--- ()                                    |
============================================TAB====

Intro:

B||-4-4-3-3\0-0-0-0-3-0-3-4-4-3-3-0-4-4-3-3\0-0-0-0-3-0-3-4-4-3-3-0-|

Solo:
E||-----------------------------------------------------------------|
B||----17-19-19-19-21-17-17-16-17-19-16-17-21-17-20~-17-21-17-20~---|
G||-16--------------------------------------------------------------|
D||-----------------------------------------------------------------|
A||-----------------------------------------------------------------|
E||-----------------------------------------------------------------|

E||-----------------------------------------------------------------|
B||-17-21-17-20~-19-19-17-16-17-19-17-16-16\14-14-14----------------|
G||-----------------------------------------------------------------|
D||-----------------------------------------------------------------|
A||-----------------------------------------------------------------|
E||-----------------------------------------------------------------|

E||-----------------------------------------------------------------|
B||----14-16/17-16-14----14-17b14-16b14-----------------------------|
G||-15-----------------14---------------14-18-16-16-16-19~-19~------|
D||-----------------------------------------------------------------|
A||-----------------------------------------------------------------|
E||-----------------------------------------------------------------|

E||-----------------------------------------------------------------|
B||-----------------------------------------------------------------|
G||-14-14-14-17~-17~-14-17-14-15~-14-17-14-15~-14-17-14-15~---------|
D||-----------------------------------------------------------------|
A||-----------------------------------------------------------------|
E||-----------------------------------------------------------------|

E||-----------------------------------------------------------------|
B||-----------------------------------------------------------------|
G||-14-14-12-12b14b12----------12-----------------------------------|
D||-------------------14-12-14--------------------------------------|
A||-----------------------------------------------------------------|
E||-----------------------------------------------------------------|


Riff:
   No vuelvas 

E||---------------------0---5-4-2b0---------------------------------|
B||----------0-2---0------0-----------------------------------------|
G||--------------0---2----------------------------------------------|
D||-----------------------------------------------------------------|
A||-----------------------------------------------------------------|
E||-----------------------------------------------------------------|

no vuelvas sin razón

E||------------------------0---2b0----------------------------------|
B||--------------0-2---2-0---0-------0------------------------------|
G||------------0-----0----------------------------------------------|
D||-----------------------------------------------------------------|
A||-----------------------------------------------------------------|
E||-----------------------------------------------------------------|

       no vuelvas

E||-----------------------0---5-4-5/7-------------------------------|
B||-------------0-2---2-0---0---------------------------------------|
G||-----------0-----0-----------------------------------------------|
D||-----------------------------------------------------------------|
A||-----------------------------------------------------------------|
E||-----------------------------------------------------------------|


    estaré a un millón de años luz

E||-----------------------0---2b0-----------------------------------|
B||-------------0-2---2-0---0-------0-------------------------------|
G||-----------0-----0-----------------------------------------------|
D||-----------------------------------------------------------------|
A||-----------------------------------------------------------------|
E||-----------------------------------------------------------------|


B		  G		 C   D
  Y cuando el mundo enmudece

B		G	  C    C/D
  y las promesas engañan

B	    G	    C          D		     B	 G	  C
 nos revolcamos en el jardín por donde nadie pasa

B		  G		 C   D
  del fuego vino el diluvio

B		G	  C    C/D
  la nave vuelve a partir

B	    G	    C   	   D		   B	   G	  C
 y mi alimento son las cenizas de una noche larga




Riff:
   No vuelvas 

E||---------------------0---5-4-2b0---------------------------------|
B||----------0-2---0------0-----------------------------------------|
G||--------------0---2----------------------------------------------|
D||-----------------------------------------------------------------|
A||-----------------------------------------------------------------|
E||-----------------------------------------------------------------|

no vuelvas sin razón

E||------------------------0---2b0----------------------------------|
B||--------------0-2---2-0---0------0-------------------------------|
G||------------0-----0----------------------------------------------|
D||-----------------------------------------------------------------|
A||-----------------------------------------------------------------|
E||-----------------------------------------------------------------|


       no vuelvas

E||-----------------------0---5-4-5/7-------------------------------|
B||-------------0-2---2-0---0---------------------------------------|
G||-----------0-----0-----------------------------------------------|
D||-----------------------------------------------------------------|
A||-----------------------------------------------------------------|
E||-----------------------------------------------------------------|


    estaré a un millón de años luz de casa

E||-----------------------0---2b0-----------------------------------|
B||-------------0-2---2-0---0-----0---------------------------------|
G||-----------0-----0-----------------------------------------------|
D||-----------------------------------------------------------------|
A||-----------------------------------------------------------------|
E||-----------------------------------------------------------------|



Solo:
E||-----------------------------------------------------------------|
B||----17-19-19-19-21-17-17-16-17-19-16-17-21-17-20~-17-21-17-20~---|
G||-16--------------------------------------------------------------|
D||-----------------------------------------------------------------|
A||-----------------------------------------------------------------|
E||-----------------------------------------------------------------|
	
E||-----------------------------------------------------------------|
B||-17-21-17-20~-19-19-17-16-17-19-17-16-16\14-14-14----------------|
G||-----------------------------------------------------------------|
D||-----------------------------------------------------------------|
A||-----------------------------------------------------------------|
E||-----------------------------------------------------------------|

E||-----------------------------------------------------------------|
B||----14-16/17-16-14----14-17b14-16b14-----------------------------|
G||-15-----------------14---------------14-18-16-16-16-19~-19~------|
D||-----------------------------------------------------------------|
A||-----------------------------------------------------------------|
E||-----------------------------------------------------------------|

E||-----------------------------------------------------------------|
B||-----------------------------------------------------------------|
G||-14-14-14-17~-17~-14-17-14-15~-14-17-14-15~-14-17-14-15~---------|
D||-----------------------------------------------------------------|
A||-----------------------------------------------------------------|
E||-----------------------------------------------------------------|

E||-----------------------------------------------------------------|
B||-----------------------------------------------------------------|
G||-14-14-12-12b14b12----------12-----------------------------------|
D||-------------------14-12-14--------------------------------------|
A||-----------------------------------------------------------------|
E||-----------------------------------------------------------------|





B		  G		 C   D
  De las historias pasadas

B		G	  C    C/D
  ya no me aturde saber

B	   G	 C          D	     B	 G	  C
 ella conoce mi perversión en una noche larga
y esta noche es larga

Riff:
   No vuelvas 

E||---------------------0---5-4-2b0---------------------------------|
B||----------0-2---0------0-----------------------------------------|
G||--------------0---2----------------------------------------------|
D||-----------------------------------------------------------------|
A||-----------------------------------------------------------------|
E||-----------------------------------------------------------------|

no vuelvas sin razón

E||------------------------0---2b0----------------------------------|
B||--------------0-2---2-0---0-----0--------------------------------|
G||------------0-----0----------------------------------------------|
D||-----------------------------------------------------------------|
A||-----------------------------------------------------------------|
E||-----------------------------------------------------------------|


       no vuelvas

E||-----------------------0---5-4-5/7-------------------------------|
B||-------------0-2---2-0---0---------------------------------------|
G||-----------0-----0-----------------------------------------------|
D||-----------------------------------------------------------------|
A||-----------------------------------------------------------------|
E||-----------------------------------------------------------------|


    estaré a un millón de años luz de casa

E||-----------------------0---2b0-----------------------------------|
B||-------------0-2---2-0---0------0--------------------------------|
G||-----------0-----0-----------------------------------------------|
D||-----------------------------------------------------------------|
A||-----------------------------------------------------------------|
E||-----------------------------------------------------------------|


E||-16-16-15-15-12-12-12-15-12-15-16-16-15-12-----------------------|










Aquí se repite tres veces el solo pero con una pequeña variación
Solo:
E||-----------------------------------------------------------------|
B||----17-19-19-19-21-17-17-16-17-19-16-17-21-17-20~-17-21-17-20~---|
G||-16--------------------------------------------------------------|
D||-----------------------------------------------------------------|
A||-----------------------------------------------------------------|
E||-----------------------------------------------------------------|
	
E||-----------------------------------------------------------------|
B||-17-21-17-20~-19-19-17-16-17-19-17-16-16\14-14-14----------------|
G||-----------------------------------------------------------------|
D||-----------------------------------------------------------------|
A||-----------------------------------------------------------------|
E||-----------------------------------------------------------------|

E||-----------------------------------------------------------------|
B||----14-16/17-16-14----14-17b14-16b14-----------------------------|
G||-15-----------------14---------------14-18-16-16-16-19~-19~------|
D||-----------------------------------------------------------------|
A||-----------------------------------------------------------------|
E||-----------------------------------------------------------------|

E||-----------------------------------------------------------------|
B||-----------------------------------------------------------------|
G||-14-14-14-17~-17~-14-17-14-15~-14-17-14-15~-14-17-14-15~---------|
D||-----------------------------------------------------------------|
A||-----------------------------------------------------------------|
E||-----------------------------------------------------------------|

E||-----------------------------------------------------------------|
B||-----------------------------------------------------------------|
G||-14-14-12-12b14b12----------12-----------------------------------|
D||-------------------14-12-14--------------------------------------|
A||-----------------------------------------------------------------|
E||-----------------------------------------------------------------|


Final:
E||------------------------------------17-19\12-------19\12---------|
B||-0-0-12/17-16-19-16-17-19/21-21-19-21----------12/19-------19/12-|
G||-----------------------------------------------------------------|
D||-----------------------------------------------------------------|
A||-----------------------------------------------------------------|
E||-----------------------------------------------------------------|

E||-19\12-------17-16-14--------------------------------------------|
B||-------19/12----------4-6-7-9-10/12\–––––––––––––––––––––––––––––|
G||-----------------------------------------------------------------|
D||-----------------------------------------------------------------|
A||-----------------------------------------------------------------|
E||-----------------------------------------------------------------|


Para los SodaStéricos

===================================================
Colaboracion de Oscar Beltrán



Acordes para guitarra
x

Todo acerca de Soda Stereo