Acordes para guitarra

Indice Soda Stereo

guitartabs

===================================================
| Soda Stereo                                     |
| TRATAME SUAVEMENTE                              |
| Daniel Melero                                   |
| ---???--- ()                                    |
============================================TAB====

Tablatura Correcta 100%, si no lo creen escrivanme.
Version: vivo Ultimo Concierto

*Intro(arpegio):
---10--10-----10--10------------------------------
--10--10--10-10--10--10---------------------------
-7---7---7--9---9---9-----------------------------
--------------------------------------------------
--------------------------------------------------
--------------------------------------------------

*Base:
ReM - Fa#m - Do9 - Si7m LaM
2--7------------------------------
3---------------------------------
4-/7------------------------------

*Coro:
SolM - LaM - Fa#m - Mim7
--3-----5-------------------------
-/4----/6-------------------------
----------------------------------
----------------------------------
------------------2-2h4-2---------
--------------2--5-------5--2-----

*Arreglos:
-0------|-7-77-7-7-9-|-220220-4-44
--0-1---|-7-77-7-8-10|-333333-5-55
-----0--|-7-77-7-7-9-|-222222-4-44
--------|------------|------------
--------|------------|------------
--------|------------|------------

*Solo:
-7--5--3--2-/-4--5--7-----8--7--5--3----------
--------------------------------------3--5b---
----------------------------------------------
----7--5--4-/-6--7--9--10----9--7--5----------
----------------------------------------------
----------------------------------------------

---5----------------4h5--------------7--------
-3----------------------------3-5-5b---r5p3---
-----4-2-1---11-2-4-----1-2-4---------------4\
----------------------------------------------
----------------------------------------------
----------------------------------------------

Cualquier pregunta escrivan!!

===================================================
Colaboracion de Ivan



Acordes para guitarra
x

Todo acerca de Soda Stereo