Acordes para guitarra

Indice Soda Stereo

guitartabs

===================================================
* Soda Stereo                                     *
* TRATAME SUAVEMENTE                              *
* Daniel Melero                                   *
* Soda Stereo (1984)                              *
===================================================

Intro :

---------------10--------------10-------------------------10--------------10---------
---------10--------------10--------------10--------10--------------10 -----------10--
----7----------------7---------------7----------9---------------9-------------9------  (x6)
-------------------------------------------------------------------------------------
-------------------------------------------------------------------------------------
-------------------------------------------------------------------------------------

D                         F#m               C9
   Alguien me ha dicho que la soledad
     Bm7                    A      
se esconde tras tus ojos
D                  F#m                 C9       Bm7       A
    y que tu blusa adora sentimientos que respiras

Tenes que comprender que no supe tus miedos
¿dónde están guardados ?
y que no podré quitártelos si al hacerlo me desgarras

G                    A
   No quiero soñar 
                         F#m     Em7
mil veces las mismas cosas
G                     A       F#m       
   ni contemplarlas sabiamente

--------------------------------------------------------------------
--------------------------------------------------------------------
--------------------------------------------------------------------
--------------------------------------------------------------------
----------0---2---4-------------------------------------------------
-----2--------------------------------------------------------------


G                           A                  D9  
   quiero que me trates suavemente

-----0--------------------------------------------------------------
----------0---1-----------------------------------------------------
--------------------0-----------------------------------------------
--------------------------------------------------------------------
--------------------------------------------------------------------
--------------------------------------------------------------------

Te comportas de acuerdo 
con lo que te dicta cada momento
y estas inconstancia no es algo herocio
es mas bien algo enfermo
no quiero...
no quiero...

Bm7     C9           Bm7         C9
Quiero que me trates suavemente
Bm7     C9           Bm7         C9
Quiero que me trates suavemente
     Bm7   Em7  F#m7        Bm7     Em7   Fa#m
suavemente               suavemente

===================================================



Acordes para guitarra
x

Todo acerca de Soda Stereo