Acordes para guitarra

Indice Soda Stereo

guitartabs

===================================================
* Soda Stereo                                     *
* TRATAME SUAVEMENTE                              *
* Daniel Melero                                   *
* ---???--- ()                                    *
===================================================

Intro : (se repite durante la mayor parte del tema con leves variaciones)

e----------10-------10--10-------10-------10-10----
B------10-----10--------------10----10-------------
G---7------------7----------9----------9-----------
D--------------------------------------------------
A--------------------------------------------------
E--------------------------------------------------

Fill 1.(Este va con el verso de la primera parte y originalmente esta hecho 
con armonicos, pero puedes hacerlo asi.....a mi parecer es mas facil de esta forma). 

                                         N.H.(armonico natural)
e-------------14---------12---------12-------------
B---------15----------14---------13----------------
G-----14----------14---------12--------------------
D----------------------------------------(12)--------
A--------------------------------------------------
E--------------------------------------------------

 
Fill 2.(esto se toca solo la primera vez durante el pre coro......deja sonando los armonicos entre si)
      
      N.H.-------

e--------------------------
B--------------------------
G-----------5--------------(x5)
D-----5--------4-----------
A--------5-----------------
E--------------------------



Verso:
Fill 1.
D                D/Db              C            
   Alguien me ha dicho que la soledad
     Bm7                        
se esconde tras tus ojos
D             D/Db            C              Bm7
    y que tu blusa atora sentimientos que respiras

Tenes que comprender que no supe tus miedos
¿dónde están guardados ?
y que no podré quitártelos si al hacerlo me desgarras


Pre coro:
G     Fill 2.  A
   No quiero soñar                    
              F#m             Em7
mil veces las mismas cosas
G           A       F#m         Bm7     
   ni contemplarlas sabiamente
G                           A                  D9  
   quiero que me trates suavemente

e-----0--------------------------------
B----------0---1-----------1--0--------
G------------------0-----0-------------
D----------------------0---------------
A--------------------------------------
E--------------------------------------

Te comportas de acuerdo 
con lo que te dicta cada momento
y esta inconstancia no es algo heroico
es mas bien algo enfermo


Pre coro:  
no quiero...

Antes del solo viene esto:

Bm7     C   (x4)

Solo:

Pre coro:

Coro:
G              A          D         E
Quiero que me trates suavemente
G              A          D         E
Quiero que me trates suavemente
G              A
Quiero que me trates 
     Bm     Em7      F#m
suavemente                (x4)

ESTO ES DE LA PARTE FINAL......VA MAS O MENOS ASI......

e---7-777-7---7--7---9--10-10----------------9-------
B---7-777-7---8--8---10-10-10----------------7-------
G---7-777-7---7--7---9--9--9------(X4)-------7-------
D----------------------------------------------------
A----------------------------------------------------
E----------------------------------------------------

=================================================
Eso es todo.......les quedo debiendo el solo.........

===================================================
Colaboracion de Dino Reyes



Acordes para guitarra
x

Todo acerca de Soda Stereo