Acordes para guitarra

Indice Soda Stereo

guitartabs

===================================================
* Soda Stereo                                     *
* SUELES DEJARME SOLO                             *
* Gustavo Cerati                                  *
* ---???--- ()                                    *
============================================BAS====

Esta es la base del tema en bajo

Cuando la guitarra hace Em-C-D el bajo hace:

1---------------------------------------------------
2---------------------------------------------------
3-----7/3-3-3---3-55-------------7/3-3-3---3-55-----
4-0-0-0-------5-------3------0-0-0-------5-------3-

Luego en el estribillo cambia a:

1----------------------------------------
2----------------------------------------
3------------3-333------------555555555/0
4---3/5-55-3---------3/5-55-3------------

Así durante todo el tema 
Este tema es muy sencillo en bajo y guitarra pero 
cualquier duda mándame un mail chau.
Aguante Soda!!!

===================================================
Colaboracion de Ariel Suniga



Acordes para guitarra
x

Todo acerca de Soda Stereo