Acordes para guitarra

Indice Soda Stereo

guitartabs

===================================================
* Soda Stereo                                     *
* SOBREDOSIS DE TV                                *
* Gustavo cerati                                  *
* ---???--- ()                                    *
============================================TAB====

En las parten donde van F# - Esus4 - F# - B11 

en vez de tocar B11 tocar esto:

1-------2-7--2-12-11--7-2--7---------------
2----0-------------------------------------
3------------------------------------------
4------------------------------------------
5------------------------------------------
6------------------------------------------

  Esto va despues del estribillo:
1----12--11--11-7-12--11-7-12--11--7-12----
2--7---------------------------------------
3------------------------------------------
4------------------------------------------
5------------------------------------------
6------------------------------------------

1---------7-12---11-7-12-11-7-12-----------
2----0--7----------------------------------
3------------------------------------------
4------------------------------------------
5------------------------------------------
6------------------------------------------

===================================================
Colaboracion de Axel Guliano



Acordes para guitarra
x

Todo acerca de Soda Stereo