Acordes para guitarra

Indice Soda Stereo

guitartabs

===================================================
* Soda Stereo                                     *
* SIGNOS                                          *
* Gustavo Cerati                                  *
* Signos (1986)                                   *
============================================TAB====

Considero que esta es la mejor cancion de Soda Stereo, y considero
a Soda Stereo el mejor grupo de rock, tanto en espaaol como en otros idiomas.
La parte previa al ultimo coro (los acordes ascendentes) no la
puedo sacar, si alguien la tiene, pues que la suba!

Por el momento me salto la introduccion porque esta dificil de
escribir, pero puedo decirles que empieza en La, en el septimo
traste de la cuarta cuerda.

-------------------------------------------------------------------------------

Usa un delay con 35 milisegundos de retardo para que suene bien y
trata de apagar un poco el sonido, no dejes que se quede sonando el
arpegio mucho tiempo.


 Esta es la vuelta principal

E|---------------------------------------------------------------------|
B|---------------------------------------------------------------------|
G|-----5-------5--------9--------9--------7--------7-------5-------5---|
D|---7---7---7---7----9---9----9---9----9---9----9---9---7---7---7---7-|
A|-7-------7-------10-------10-------10-------10-------8-------8-------|
E|---------------------------------------------------------------------|

E|---------------------------------------------------------------------------|
B|---------------------------------------------------------------------------|
G|-----5-------5------9------9-------12--------12--------10----------10------|
D|---7---7---7---7--9---9--9---9--12----12--12----12--12----12----12----12---|
A|-7-------7------10-----10-----13--------13--------12---------12------------|
E|---------------------------------------------------------------------------|




Toca lo anterior en las estrofas, y al terminar la primera estrofa
tocas La menor y Do Mayor
para luego tocar esto:

   slide    slide
E|-3---5----5---8----------------------------------|
B|-------------------------------------------------|
G|-------------------------------------------------|
D|-------------------------------------------------|
A|-------------------------------------------------|
E|-------------------------------------------------|

En los coros son puros acordes, asi:

Am    DM
   Signos

Am             DM  CM
mi parte insegura

Am       DM
bajo una luna hostil

Am       DM    CM
Signos, oh



Luego del coro tocas esto:

E|-----------3----------------------------------3-----------------------------|
B|---1---0------------1---0---3---------1---0-------------1---0---3-----------|
G|-0----------------0---------------0-----------------0-----------------------|
D|----------------------------------------------------------------------------|
A|----------------------------------------------------------------------------|
E|----------------------------------------------------------------------------|



Luego del segundo coro viene esto, dos veces:
                                                 slide
E|----------------------------------------------------------------------------|
B|-----------------------------------------------14--17-----------------------|
G|----14--17--14--16--14--16--14-----14--17--14-------------------------------|
D|-14-----------------------------14------------------------------------------|
A|----------------------------------------------------------------------------|
E|----------------------------------------------------------------------------|

Luego tocas esto:

E|-5---4---5---8--------------------------------------------------------------|
B|-6---6---6---6---5----6-----5-----3-----------------------------------------|
G|-7---7---7---7---5------5-----5---------------------------------------------|
D|-----------------5--------5-----5-------------------------------------------|
A|-----------------3----------------------------------------------------------|
E|----------------------------------------------------------------------------|

Aqui viene la parte que no he podido sacar, donde los acordes suben
y llegan al coro. Eso es todo en la version de estudio, les dejo
las cosas extras del Ruido Blanco a los fans.


Ah! y el teclado o guitarra que acompaaa los arpegios de las
estrofas es asi:

E|--------3------------------------------------------------------------------|
B|--------------------------5--6--5-----------3--------------6--5--3--0--3--0|
G|--4--5--------4--5--4--2--------------4--5-----5--4--0--2------------------|
D|---------------------------------------------------------------------------|
A|---------------------------------------------------------------------------|
E|---------------------------------------------------------------------------|



No hay un modo, no hay un punto exacto
Te doy todo, siempre guardo algo.
Si estas oculta, como sabre quien eres?
Me amas a oscuras, duermes envuelta en redes

Signos
Mi parte insegura
Bajo una luna hostil
Signos, oh

Mar de fondo, no caere en la trampa
Llamame pronto, acertijos bajo el agua
Si algo cedes, calmare tu histeria
Con los dientes, calmare tu histeria

Signos
Mi parte insegura
Bajo una luna hostil
Signos, oh

Signos
Uniendo fisuras
Figuras sin definir
Signos, oh

==============================================================
Colaboracion de Mario Rangel 
Transcripcion de Enrique Zamudio 

===================================================



Acordes para guitarra
x

Todo acerca de Soda Stereo