Acordes para guitarra

Indice Soda Stereo

guitartabs

===================================================
* Soda Stereo                                     *
* PROFUGOS                                        *
* Cerati/Ficicchia                                *
* ---???--- ()                                    *
============================================BAS====

1/-----------------------------------------------
2/-----------------------------------------------
3/-----------------------------------------------
4/---0 ---0 -0 ---3 ---5 ---3 ---5-------------

1/-----------------------------------------------
2/-----------------------------------------------
3/-----------------------------------------------
4/---0 ---0 -0 ---3 ---5 ---3 ---5-------------

1/-----------------------------------------------
2/-----------------------------------------------
3/-----------------------------------------------
4/---0 ---0 ---2 ---2 ---0 ---0 ---2 ---0------

1/-----------------------------------------------
2/-----------------------------------------------
3/-----------------------------------------------
4/---5 ---3 ---0 ---3 ---5 ---3 ---5 ---5------

1/-----------------------------------------------
2/-----------------------------------------------
3/--------------5(x 16)---7(x 16)-------------
4/---3(x 16)------------------------7(x 16)---

1/-----------------------------------------------
2/-----------------------------------------------
3/---------------5(x 16)---7(x 16)---9(x 16)             
4/---3(x 16)-----------------------------------

1/-----------------------------------------------
2/-----------------------------------------------
3/-----------------------------------------------
4/---0 ---0 ---2 ---2 ---0 ---0 ---2 ---0------

1/-----------------------------------------------
2/-----------------------------------------------
3/-----------------------------------------------
4/---5 ---3 ---0 ---3 ---5 ---3 ---5 ---5------


1/-----------------------------------------------
2/-----------------------------------------------
3/--------------5(x 16)---7(x 16)-------------
4/---3(x 16)------------------------7(x 16)---

1/-----------------------------------------------
2/-----------------------------------------------
3/---------------5(x 16)---7(x 16)---9(x 16)             
4/---3(x 16)-----------------------------------


1/-----------------------------------------------
2/-------------7(x 8)---------------------------
3/---5(x 8)------------7(x 8)-----------------
4/--------------------------------7(x 8)--------

1/-------------------------------------------------------
2/-------------7(x 8)-----------------------------------
3/---5(x 8)------------7(x 8)-----------3(x 16)---3/5
4/--------------------------------3(x 8)----------------

Se Repite (Intro, estrofa y coro)

1/-----------------------------------------------
2/-----------------------------------------------
3/-----------------------------------------------
4/---0 ---0 ---2 ---2 ---0 ---0 ---2 ---0------

1/-----------------------------------------------
2/------------------------------------------6/9-
3/-----------------------------------5--6-------
4/---5 ---3 ---0 ---3 ---5 --------------------

1/-----------------------------------------------
2/-----------------------------------------------
3/-----------------------------------------------
4/---0 ---0 ---2 ---2 ---0 ---0 ---2 ---0------

1/-----------------------------------------------
2/-----------------------------------------------
3/-----------------------------------------------
4/---5 ---3 ---0 ---3 ---5 ---3 ---5 ---5------

1/-----------------------------------------------
2/-----------------------------------------------
3/-----------------------------------------------
4/---3(x 32)---1---3(x 32)-------------------

Intro, Coro.

1/---------------9---7-------9---7---5--------
2/---5------5-----------5---------------/5-----
3/-------3--------------------------------------
4/-----------------------------------------------

===================================================



Acordes para guitarra
x

Todo acerca de Soda Stereo