Acordes para guitarra

Indice Soda Stereo

guitartabs

===================================================
| Soda Stereo                                     |
| PRIMAVERA 0                                     |
| Gustavo Cerati                                  |
| ---???--- ()                                    |
============================================BAS====

otra vez yo por que sus transcripciones estan bien feas ahi les 
va dudas y comentarios a mi mail

afinacion standard (e,a,d,g)

RIFF 1

G---------------------------------------------------------------------------------------------
D---------------------------------------------------------------------------------------------
A---------------------------------------------------------------------------------------------
E-8-8-8-8-8-8-8-7-7-7-7-7-7-7-7-6-6-6-6-6-6-6-5-5-5-5-5-5-5-4-4-4-4-4-4-4-4-3-3-3-3-3-3-3-3-3-

G---------------------------------------------------------------------------------------------
D---------------------------------------------------------------------------------------------
A-8-8-8-8-8-8-8-7-7-7-7-7-7-7-7-6-6-6-6-6-6-6-5-5-5-5-5-5-5-3-3-3-3-3-3-3-3-------------------
E---------------------------------------------------------------------------3-3-3-3-3-3-3-3-3-

RIFF 2 Y SOLO DE GUITARRA


G---------------------------------------------------------------------------------------------
D---------------------------------------------------------------------------------------------
A---------------------------------------------------------------------------------------------
E-5-4-5-0-4-5-6-5-6-0-5-6-8-6-8-----6-5-6-----------------------------------------------------

ESA ES TODA LA CANCION SENCILLA NO

DESDE MEXICO COMENTARIOS A MI MAIL

===================================================
Colaboracion de victor lopez navarrete



Acordes para guitarra
x

Todo acerca de Soda Stereo