Acordes para guitarra

Indice Soda Stereo

guitartabs

===================================================
* Soda Stereo                                     *
* NO EXISTES                                      *
* Gustavo Cerati/Zeta Bosio                       *
* ---???--- ()                                    *
============================================BAS====

Intro

1/----------------------------------------------------
2/----------------------------------------------------
3/----------------------------------------------------
4/-1--5--6--10----------------------------------------

Estrofa

1/----------------------------------------------------------------
2/----------------------------------------------------------------
3/----------------------------------------------------------------
4/--1--5--6--10--8--6--10--8--6--10--8--6--10--8--6---------------

1/----------------------------------------------------------------
2/----------------------------------------------------------------
3/----------------------------------------------------------------
4/--1--5--6--10--8--6--10--8--6--10--8--6--10--8--6---------------


1/-----------------------------------------------------
2/-----------------------------------------------------
3/-------------6--5--3--1--0--1------------------------
4/--3--6--5--------------------------------------------

Bridge

1/-------------------------------------------------------
2/------------------------------8--8--8--8--7--7--7--7---
3/--5--5--5--5--8--8--8--8-------------------------------        4 veces
4/-------------------------------------------------------

Estrofa

1/--------------------------------------------------------------
2/--------------------------------------------------------------
3/--------------------------------------------------------------        

1/--------------------------------------------------------------
2/--------------------------------------------------------------
3/--------------------------------------------------------------        


1/----------------------------------------------------
2/----------------------------------------------------
3/----------------------------------------------------                  4veces        
4/--10--10--10--10--8--8--8--8--6--6--6--6--6--6--6--6


1/-----------------------------------------------------------------------------------
2/-----------------------------------------------------------------------------------
3/------------------------------------------------------------------------------6--5-        
4/--3--3--3--3--3--3--3--3--3--6--6--6--6--6--6--6--6--5--5--5--5--5--5--5--5--------


1/------------------------------------------------------------------------------------------
2/------------------------------------------------------------------------------------------


1/--------------------------------------------------------------------------------------------------------
2/--------------------------------------------------------------------------------------------------------
3/---------------------------6--6--6--6--5--5--5--5-------------------------------------------------------     4 veces       
4/--3--3--3--3--6--6--6--6---------------------------3--3--3--3--6--6--6--6--8--8--8--8--6--6--6--6-------


1/----------------------------------------------------------------------------------------------
2/----------------------------------------------------------------------------------------------


1/----------------------------------------------------
2/----------------------------------------------------
4/----------------------------------------------------


1/--------------------------------------------------------------------------------------------------------
2/--------------------------------------------------------------------------------------------------------
3/---------------------------6--6--6--6--5--5--5--5------------------------------------------------------- 
4/--3--3--3--3--6--6--6--6---------------------------3--3--3--3--6--6--6--6--8--8--8--8--6--6--6--6-------

Hasta el final.

Como pueden ver, es un bajo muy sencillo. Lo único que hay que hacer es seguir el ritmo de la batería .

===================================================



Acordes para guitarra
x

Todo acerca de Soda Stereo