Acordes para guitarra

Indice Soda Stereo

guitartabs

===================================================
| Soda Stereo                                     |
| LO QUE SANGRA                                   |
| Gustavo Cerati                                  |
| ---???--- ()                                    |
============================================BAS====

Bueno... hice lo que pude para sacar el bajo de esta cancion. 
Hoy en día hacen falta mas bandas como Soda y mas bajistas como Zeta Bosio...

Intro:

(Dos compases en silencio. Comienza en 00:05)

 |       |       |       |        |       |       |       |        
|--------------------------------|--------------------------------|
|--------------------------------|--------------------------------|
|--------------------------------|--------------------------------|
|5-----5---5-3---5---------------|5-----5---5-3---5---------------|

 |       |       |       |        |       |       |       |        
|--------------------------------|--------------------------------|
|----------------------3---3-----|--------------------------------|
|5---------------3---5-----------|5-----------5---3---5-----------|
|--------5---7-------------------|--------5-------------3---------|

 |       |       |       |        |       |       |       |        
|--------------------------------|--------------------------------|
|--------------------------------|--------------------------------|
|--------------------------------|--------------------------------|
|5-----5---5-3---5---------------|5-----5---5-3---5---------------|

Estrofa 1:

 |       |       |       |        |       |       |       |        
|--------------------------------|--------------------------------|
|----------------------3---3-----|--------------------------------|
|5---------------3---5-----------|5-----------5---3---5-----------|
|--------5---7-------------------|--------5-------------3---------|
     Yo conozco este lugar donde revientan las estrellas
     Yo conozco este lugar donde todos se la creen

 |       |       |       |        |       |       |       |        
|--------------------------------|--------------------------------|
|--------------------------------|--------------------------------|
|--------------------------------|--------------------------------|
|5-----5---5-3---5---------------|5-----5---5-3---5---------------|

 |       |       |       |        |       |       |       |        
|--------------------------------|--------------------------------|
|----------------------3---3-----|--------------------------------|
|5---------------3---5-----------|5-----------5---3---5-----------|
|--------5---7-------------------|--------5-------------3---------|
     Yo conozco la escalera en espiral hacia la cúpula
     Yo conozco la salida de emergencia que nos salvará

 |       |       |       |        |       |       |       |        
|--------------------------------|--------------------------------|
|--------------------------------|--------------------------------|
|--------------------------------|--------------------------------|
|5-----5---5-3---5---------------|5-----5---5-3---5---------------|

Estrofa 2:

 |       |       |       |        |       |       |       |        
|--------------------------------|--------------------------------|
|--------------------------------|--------------------------------|
|1---------------3---------------|1---------------3---------------|
|--------------------------------|--------------------------------|
     Los rayos X no penetran
     Pinté tu nombre en las paredes

 |       |       |       |        |       |       |       |        
|--------------------------------|--------------------------------|
|--------------------------------|--------------------------------|
|--------------------5-----------|--------------------------------|
|3---------------3/5-------------|3---------------5---------------|
     Los oscuros vidrios de una limousine
     Si sé que esperas no podré dormir

Estrofa 3:

 |       |       |       |        |       |       |       |        
|--------------------------------|--------------------------------|
|--------------------------------|----------------------5---------|
|5-----5-----5---------------2---|3-----3-----3-------------2-3-4-|
|----------5-----5-----5---5-----|----------3-----3---------------|
     Te rescataré...

 |       |       |       |        |       |       |       |        
|------7---------------5---------|--------------------------------|
|--------------------------3-----|--------------------------------|
|5---------0-1-2-3-----------3---|--------------------------------|
|--------------------------------|1-----1---0-1-2-3-----3---0-3---|
     Te rescataré...   

 |       |       |       |        |       |       |       |        
|--------------------------------|--------------------------------|
|--------------------------------|--------------------------------|
|1---1-----------3---3-----------|--------------------------------|
|--------------------------------|5-----5---5-3---5---------------|
     Los guardianes pierden el honor...

 |       |       |       |        |       |       |       |        
|--------------------------------|--------------------------------|
|--------------------------------|--------------------------------|
|1---1-----------3---3-----------|----------------4-------5-------|
|--------------------------------|5-------------------------------|
     Mientras respiran.           Hay tanto fraude a nuestro alrededor
     Aprovechemos...              Hay tamta cama a nuestro alrededor

 |       |       |       |        |       |       |       |        
|--------------------------------|--------------------------------|
|--------------------------------|--------5-----------------------|
|------------------------5-------|8-------------------------------|
|3---------------5---------------|--------------------------------|
                                             Comprenderás...
                                             Verás que...

Estribillo:

 |       |       |       |        |       |       |       |        
|--------------------------------|--------------------------------|
|--------------------------------|--------------------------------|
|5-------------2-3-----3-----3---|------------0-2-3---------------|
|------2---5---------------3-----|1-----1-----------------3-------|
                           Es amor lo que sangra

 |       |       |       |        |       |       |       |        
|--------------------------------|--------------------------------|
|--------------------------------|--------------------------------|
|5-------------2-3-----3-----3---|------------0-2-3---------------|
|------2---5---------------3-----|1-----1-----------------3-------|
                           Desde el cielo en la cupula

 |       |       |       |        |       |       |       |        
|--------------------------------|--------------------------------|
|--------------------------------|--------------------------------|
|5-------------2-3-----3-----3---|------------0-2-3---------------|
|------2---5---------------3-----|1-----1-----------------3-------|
                           Es amor lo que sangra

 |       |       |       |        |       |       |       |        
|--------------------------------|--------------------------------|
|--------------------------------|--------------------------------|
|5-------------2-3-----3-----3---|------------0-2-3---------------|
|------2---5---------------3-----|1-----1-----------------3-------|
                           Sobre el techo en la cupula

Intermedio:

 |       |       |       |        |       |       |       |        
|--------------------------------|--------------------------------|
|--------------------------------|--------------------------------|
|5---------------3---------------|5-----5-------------------------|
|--------3---5-------------------|--------------------------------|

 |       |       |       |        |       |       |       |        
|--------------------------------|--------------------------------|
|--------------------------------|--------------------------------|
|----------------------3---------|----------------------3-----3---|
|5-------5---3---5---5-----5-3---|5-------5---3---5---5-----5-----|

 |       |       |       |        |       |       |       |        
|--------------------------------|--------------------------------|
|--------------------------------|--------------------------------|
|5---------------3---------------|5-----5-------------------------|
|--------3---5-------------------|--------------------------------|

 |       |       |       |        |       |       |       |        
|--------------------------------|--------------------------------|
|--------------------------------|--------------------------------|
|----------------------3---------|----------------------3---------|
|5-------5---3---5---5-----5-3---|5-------5---3---5---5-----5-3---|

(Vuelve a 'Los rayos X...')

Durante el final, donde los coros hacen 'Cupula', seguir con la base del estribillo.


Estructura:

Introduccion
Estrofa 1
Estrofa 2
Estrofa 3
Estribillo
Estrofa 1
Estrofa 2
Estrofa 3
Estribillo
Intermedio 
Estrofa 2
Estrofa 3
Estribillo (hasta el final...)

Nota: Las letras estan solo para ubicación de las partes.
      La ubicacion en la tablatura no es exactamente como suena en la canción.



===================================================
Colaboracion de Martin Vecchio



Acordes para guitarra
x

Todo acerca de Soda Stereo