Acordes para guitarra

Indice Slayer

guitartabs

     Strain Of Mind Solo tab by Slayer




Strain Of Mind Tab


strain of mind (solo)
album: diabolus in musica
slayer

tabbed by Rudy Guzman

:------------------------------17\------------------------------|
:19b-19b-19b-19b-19-19b-19b~~-------------10h11p10----10h11p10--|
:21b-21b-21b-21b----21b-21b~~-------11-12----------12-----------|
:---------------------------------------------------------------|
:---------------------------------------------------------------|
:---------------------------------------------------------------|


                              bar
:--------------------------------------------------9Ah-----------|
:----------------------------------------------8b----------------|
:---------------------------------------1h2p1--------------------|
:------------------------3AH-------------------------------------|
:-12\--10-9-5\----------------0---1h2p1--------------------------|
:---------------5~~~--7------------------------------------------|



References

Acordes para guitarra
x

Todo acerca de Slayer