Acordes para guitarra

Indice Slayer

guitartabs

     South Of Heaven Intro tab by Slayer




South Of Heaven Tab


Slayer - south of heaven

By: KoRnAtEmYmOm (J.J. Nyari)

Here is the correct Intro(s) to slayers south of heaven

Intro1:

e|-------------------------------------------|
B|-------------------------------------------|
G|-----------------9------8------7------6\5--|second time dont play the 5
D|----------9-10------10------8------8-------|
A|-----7-------------------------------------|
E|-0-----------------------------------------|
   *

Intro2:
Harmonize with intro1
e|--------------------------------------------|
B|--------------------------------------------|
G|--------------------------------------------|
D|------------------9------8------7------6\5--|second time dont play the 5
A|-----------9-10------10------8------8-------|
E|-0----7-------------------------------------|



References

Acordes para guitarra
x

Todo acerca de Slayer