Acordes para guitarra

Indice Slayer

guitartabs

     Memories Of Tomorrow tab by Slayer




Memories Of Tomorrow Tab


                               SLAYER
                        Memories Of Tomorrow

*from the japan release of Undisputed Attitude*

tabbed by jeff mouland

i suck at tabbing songs so i kept this short .... find the
song, listen to it and put it all together.

tune down a half step

  intro
|---------------------------
|---------------------------
|---------------------------
|--4/5--4/5--4/5--4/5-------
|--2/3--2/3--2/3--2/3-------
|-----------------------\8-a slide or pick scrape i think

  verse riff

  pm.....      pm.....      pm.....      pm.....
|------------------------------------------------
|------------------------------------------------
|------------------------------------------------
|-4-5-5-----3--4-5-5-----3--4-5-5-----3--4-5-5---
|-2-3-3---0-1--2-3-3---0-1--2-3-3---0-1--2-3-3---
|-------3------------3------------3--------------

  chorus riff

|------------------------------------------------------
|------------------------------------------------------
|------------------------------------------------------
|-5-55-7-77-8-88-10-1010-10-5-55-7-77-8-88-10-1010-10--
|-3-33-5-55-6-66-8--8-8--8--3-33-5-55-6-66-8--8-8--8---
|------------------------------------------------------
                memories of tomorrow .....crying in sorrow..

  outro
|-----------------
|-----------------
|-----------------
|--4/5--4/5--5--5-
|--2/3--2/3--3--3-
|-----------------



more slayer tabs here:




References

Acordes para guitarra
x

Todo acerca de Slayer