Acordes para guitarra

Indice Slapshock

guitartabs

     Inside Out tab by Slapshock




Inside Out Tab

   votes]

                       "INSIDE OUT"BY SLAPSHOCK
                       transcribed by:freongang

Tuning:dropped D

 intro:  as many times
e|------------------------------|
B|------------------------------|
G|------------------------------|
D|----------5-5------3-3--------|
A|--5-5-5-5------3-3------------|
E|------------------------------|

e|------------------------------|
B|------------------------------|
G|------------7-7-------5-5-----|
D|---7-7-7-7--5-5--5-5--3-3-----|
A|---5-5-5-5-------3-3----------|
E|------------------------------|

e|-----------------------------------------|
B|-----------------------------------------|
G|-----------------------------------------|
D|-------------------3-3-3-3-5-5-5-5-------|
A|---5-5-5-5-7-7-7-7-----------------5-5---|
E|-----------------------------------------|

e|----------------------|
B|----------------------|
G|----------------------|
D|--5-5--7--3--5--------|
A|--5-5--7--3--5--------|
E|----------------------|
 as many times
e|------------------------------|
B|------------------------------|
G|------------------------------|
D|----------5-5------3-3--------|
A|--5-5-5-5------3-3------------|
E|------------------------------|

   just follow the sequence.... <<<>>>



References

Acordes para guitarra
x

Todo acerca de Slapshock