Acordes para guitarra

Indice Slapshock

guitartabs

     Getaway tab by Slapshock




Getaway Tab


   911Tabs.Com
SONG: Getaway
BAND: Slapchuck
ALBUM: Headtrip

Tuning: Dropped d tuning DADGBE
note: Slapshock's tuning is whole step down
DGCFAD. I only use dropped in order to make the
song easy to play.

Intro:
E -----------------------------|
B -----------------------------|
G -----------------------------|
D -----------------------------|(4x)
A --0-0-0-3-3-3-5-5-5-6-6-6----|
D --0-0-0-3-3-3-5-5-5-6-6-6----|
p.m.- - - - - - - - - - - -

E -----------------------------   --
B -----------------------------   --
G -----------------------------   --
D -----------------------------(4x)-
A --0-0-0-3-3-3-5-5-5-6-6-6----    0
D --0-0-0-3-3-3-5-5-5-6-6-6----    0

Verse:
E -----------------------------|
B -----------------------------|
G -----------------------------|
D -----------------------------|(4x)
A --0-0-0-3-3-3-5-5-5-6-6-6----|
D --0-0-0-3-3-3-5-5-5-6-6-6----|

E -----------------------------|
B -----------------------------|
G -----------------------------|
D -----------------------------|(4x)
A --0-0-0-3-3-3-5-5-5-6-6-6----|
D --0-0-0-3-3-3-5-5-5-6-6-6----|
p.m.- - - - - - - - - - - -

Pre-chorus
E ----------    ------------ ----------    ----|
B ----------    ------------ ----------    ----|
G ----------    ------------ ----------    ----|
D ----------(3x)------------ ----------(3x)----|
A -----5--6-    -------6--5- -----5--6-    --0-|
D --0-------    ----0------- --0-------    --0-|

Chorus:
E ----------    ------------ ----------    --------------|
B ----------    ------------ ----------    --------------|
G ----------    ------------ ----------    --------------|
D -----7--8-(3x)-------8--7- -----7--8(3x) --12-12-14-14-|
A --0--5--6-    0-0-0--6--5- --0--5--6-    --10-10-12-12-|
D --0-------    0-0-0------- --0-------    --------------|
p.m.            - - -

Break  Interlude
E ---- -----       --------------|
B ---- -----       --------------|
G ---- -7-7-(4x)   -----7-7------|(4x)
D ---- -----(gtr.1)--------------|(gtr.2)
A --0- -----       --0--5-5--0-0-|
D --0- -----       --0-------0-0-|
p.m.
                      - -
E -------------------------------------------|
B -------------------------------------------|
G -------------------------------------------|
D -------------------------------------------|(4x)
A --0-0-0-0-0-3-3-3-3-3-5-5-5-5-5-6-6-6-6-6--|(gtr.3)
D --0-0-0-0-0-3-3-3-3-3-5-5-5-5-5-6-6-6-6-6--|
p.m.- - - - - - - - - - - - - - - - - - - -

Bridge:
E -------------------------------------------|
B -------------------------------------------|
G -------------------------------------------|
D -------------------------------------------|
A --0-0-0-0-0-3-3-3-3-3-5-5-5-5-5-6-6-6-6-6--|
D --0-0-0-0-0-3-3-3-3-3-5-5-5-5-5-6-6-6-6-6--|
(rep.chorus)

Coda:
E -----------    ----------------------------------|
B -----------    ----------------------------------|
G -----------    ----------------------------------|
D -----7-8---(3x)----------------------------------|
A --0--5-6-0-    -0-0-0-0-3-3-3-3-5-5-5-5-3-3-3-3-0|
D --0------0-    -0-0-0-0-3-3-3-3-5-5-5-5-3-3-3-3-0|

_end_



References

Acordes para guitarra
x

Todo acerca de Slapshock