Acordes para guitarra

Indice Sisters Of Mercy

guitartabs

   Of Mercy
     Kiss The Carpet bass tab by Sisters Of Mercy




Kiss The Carpet Bass Tab


"Kiss The Carpet" by The Sisters of Mercy (from the album "Some Girls Wander by
 Mistake")
===============================================================================
==========



intro:
A|-0---------------------------------------------------------------

xlots then:
A|-------0-----0---------0-----0---------0-----0---------0-----0---
E|-5-------5-------5-------5-------5-------5-------5-------5-------

a few times then:
A|-------0-----0-----0-3---3-------------0-----0-----0-3---3-------
E|-5-------5-----5-------5---5-5-5-5-------5-----5-------5---5-5-5-

main riff:
D|---------2-----2-------------------------2-----------------------
A|-0-----0---------3-5-5-3-5---3---5-----5-----------------3-5-3-5-
E|-----------------------------------------------3-------5---------

D|---------2-----2-------------------------2-----5-----------------
A|-0-----0---------3-5-5-3-5---3---5-----5---------------5-3-5-3-5-
E|-----------------------------------------------------------------

break:
D|-------------------0-0-0-0-0-----------------------0-0-0-0-0-----
A|-0---------------------------3---0---------------------------3---





References

Acordes para guitarra
x

Todo acerca de Sisters Of Mercy