Acordes para guitarra

Indice Sisters Of Mercy

guitartabs

     Emma bass tab by Sisters Of Mercy




Emma Bass Tab


"Emma" by The Sisters of Mercy (from the Dominion 12")
======================================================



Comments and suggestions are welcome.


Riff 1:

e|--------------------------|--------------------------|
B|-----------------0--1--3--|-3--3--1--1--0--0-1-0-----|
G|-----------0--2-----------|-----------------------2--|
D|--0--2--4-----------------|--------------------------|
A|--------------------------|--------------------------|
E|--------------------------|--------------------------|

e|------------|-------------------------
B|--0---0--1--|--3--3--1--1--0--0-------
G|----2-------|--------------------2-2--
D|------------|-------------------------
A|------------|-------------------------
E|------------|-------------------------


Riff 2:

e|---------------------------|--------------------------
B|--5--5--3--3--2--2-3-2-----|--3--3--2--2--0--0--0-----
G|------------------------4--|-----------------------2--
D|---------------------------|--------------------------
A|---------------------------|--------------------------
E|---------------------------|--------------------------


Chords:

C: x32010
D: xx0323

Bass:

G|--------------------------------------------------------------------------
D|--------------------------------------------------------------------------
A|--5----5--5----5--5----5--5--0--5--0--3----3--3----3--3----3--3--0--3--0--
E|--------------------------------------------------------------------------



References

Acordes para guitarra
x

Todo acerca de Sisters Of Mercy