Acordes para guitarra

Indice Siakol

guitartabs

     Lagim Solo tab by Siakol




Lagim Tab


   911Tabs.Com
----------------------------------------------------------------------
                             Lagim
                          By: Siakol
----------------------------------------------------------------------
simple lang 'to



(after chorus)
e --------------------------
b --------------------------
g --------------------------
d --------------------------
a -5-7-9-10-9-5-------------
e --------------7-5-4-5-9---

e --------------------------
b --------------------------
g --------------------------
d --------------------------
a -5-7-9-10-9-5-------------
e --------------7-5-4-5-5---

un lang!!!



References

Acordes para guitarra
x

Todo acerca de Siakol