Acordes para guitarra

Indice Siakol

guitartabs

     Hiwaga Solo tab by Siakol




Hiwaga Tab


   911Tabs.Com
HIWAGA, Siakol
(Hiwaga)
Guitar Transcription by:
Anthony "Miniong" Cervantes

Tablature Explanation:

x- Dead string
H- hammer on
P- pull off
\- Slide
m- Muting

Intro chords

     C     Dm    F     G                C                    Dm
E |-----|-----|-----|-----||------------------------------------------------|
B |--x--|--x--|--x--|--x--||------------------------------------------------|
G |--5--|--7--|--2--|--4--||---------9--10-9---------9--10-9--------9H-10---|
D |--5--|--7--|--3--|--5--||-10m-12m---------10m-12m---------10m-12m--------|
A |--3--|--5--|--3--|--5--||------------------------------------------------|
E |-----|-----|--1--|--3--||------------------------------------------------|
  |____3x_____|             |___________________ 3x _______________________|

                 F                      G
E |----------------------------|------------------------|
B |----------------------------|------------------------|
G |---------9--10-12\-14-12-10-|-9--10-10p9----9--10-9--|
D |-10m-12m--------------------|-----------12-----------|
A |----------------------------|------------------------|
E |----------------------------|------------------------|

Chorus (guitar I)                               Chorus (guitar II)

     C     Dm    F     G     Em    F     G           C                    Dm
E |-----|-----|-----|-----|--0--|-----|-----||----------------|----------------
---------|
B |--x--|--x--|--x--|--x--|--0--|--x--|--x--||----------------|----------------
---------|
G |--5--|--7--|--2--|--4--|--0--|--2--|--4--||-------5-----5--|-------7-----7--
-----7---|
D |--5--|--7--|--3--|--5--|--2--|--3--|--5--||----------------|----------------
---------|
A |--3--|--5--|--3--|--5--|--2--|--3--|--5--||-3m-3m----3m----|-5m5m----5m----5
m5m------|
E |-----|-----|--1--|--3--|--0--|--1--|--3--||----------------|----------------
---------|

Guitar II continue....

         F                    G                    Em               F
              G
E |----------------|---------------------------|--------|----------------------
---|-------------------------|
B |------6-----6---|--------8----8--6-5--------|----5-5-|----6-6----6----6-6---
-6-|-------8-8--8----8-8---8-|
G |-5m5m---5m------|-7m-7m----7m--------7m-5m--|-5m-----|-5m-----5m---5m-----5m
---|-5\-7-----7m---7m----7m--|
D |----------------|---------------------------|--------|----------------------
---|-------------------------|
A |----------------|---------------------------|--------|----------------------
---|-------------------------|
E |----------------|---------------------------|--------|----------------------
---|-------------------------|
                                                |__5x__|

Adlib (Repeat 2x)

           C                                 Dm                     C
         Dm
E |--------12--13-12-|-------12--13-12--------12h13-||-------12--13-12-|-------
12--13-12--13-13p-12-------|
B |-13-15------------|-13-15------------13-15-------||-13-15-----------|-13-15-
---------------------15-13-|
G |------------------|------------------------------||-----------------|-------
---------------------------|
D |------------------|------------------------------||-----------------|-------
---------------------------|
A |------------------|------------------------------||-----------------|-------
---------------------------|
E |------------------|------------------------------||-----------------|-------
---------------------------|

           C                         Dm
E |--------12--13-12-|-------12--13-12--------12h13-||-13-13p12----13-13-12h-13
-|-15-15p-13--12-15-|
B |-13-15------------|-13-15------------13-15-------||----------15-------------
-|------------------|
G |------------------|------------------------------||-------------------------
-|------------------|
D |------------------|------------------------------||-------------------------
-|------------------|
A |------------------|------------------------------||-------------------------
-|------------------|
E |------------------|------------------------------||-------------------------
-|------------------|

   Ending After INtro

E |--13-12--------|
B |--------15-----|
G |---------------|
D |------------10-|
A |---------------|
E |---------------|



References

Acordes para guitarra
x

Todo acerca de Siakol