Acordes para guitarra

Indice Siakol

guitartabs

     Bakit Ba chords by Siakol




Bakit Ba Chords


Song:Bakit Ba
Performed By: Siakol
Tabbed By: Erick14

Intro: G-Em-C-D
       G-Em-C-D
   G                      Bm
nag aaliw sa usok at beer lang ang kasama
e---7/10-7h8-7---
B--------------8-
G----------------
   Em                          Am     D
mas okey pang laging ganto nalilimutan ka
e--8p7-8p7-8p7---
B--------------8-
G----------------
   G                      Bm
hindi ko malaman sayo kung ano ang drama mo
e--7-8-10-8-7---
B-------------8-
G--7-9-11-9-7---
D-------------9-
   Em                       Am           D
bakit lagi mo na lang sinasaktan ang puso ko
e--8p7-8p7-8p7---
B--------------8-
G----------------
    G                        Bm
tandang tanda ko pa noong tayo'y namamasyal
e---7/10-7h8-7---
B--------------8-
G----------------
  Em                            Am            D
napasulyap lang sa iba bigla mo na kong sinampal
e--8p7-8p7-8p7---
B--------------8-
G----------------
    G                       Bm
at sa kaseselos mo nga'y lalong minahal kita
e--7-8-10-8-7---
B-------------8-
G--7-9-11-9-7---
D-------------9-
  Em                    Am      D
subalit nasaan ka na sumama sa iba
e------10--------
B--7h8-----------
G----------------

Chorus:
 G    Em           C             D
bakit bakit ba iniwan mong nag iisa
 G    Em           C             D
bakit bakit ba sa akin bay nag sawa na
 C          D           C         D
sinusunod naman kita kahit ano kinakaya
  C               D
wala pa ring kwenta bakit ba

G-Em-C-D
G-Em-C-D
  G                        Bm
ano ba ang nakita mo at pinag palit mo ko
e---7/10-7h8-7---
B--------------8-
G----------------
  Em                   Am           D
naka sisiguro ka ba ngayon sa bago mo
e--8p7-8p7-8p7---
B--------------8-
G----------------
D----------------
  G                       Bm
sana ay mahalin ka nya at wag kang sasaktan
e--7-8-10-8-7---
B-------------8-
G--7-9-11-9-7---
D-------------9-
  Em                          Am          D
kahit di na tayo'y problema mo'y sabihin lang
e--8p7-----------
B-----8--8/10/12-
G------7---------
D-----------------
   G                           Bm
pilit ka mang limutan ay naghihintay parin
e---7/10-7h8-7---
B--------------8-
G----------------
   Em                 Am            D
nagbabaka sakali na muli kang dumating
e-7/10-7h8p7-----
B------------8---
G--------------7-
D----------------
 G                         Bm
bakit ba kay hirap ng kalagayan ko ngayon
e--7-8-10-8-7---
B-------------8-
G--7-9-11-9-7---
D-------------9-
   Em                      Am          D
kaya't saking sarili ay laging nagtatanong
e------10--------
B--7h8-----------
G----------------
D----------------

repeat chorus:

adlib: G-Em-C-D
       G-Em-C-D-C-D-C-D-C-D-E

e----------------5---5/7-7--------------------------10-8-7-10-8-7-------
B----------5-7-8---8-------10-8-10-8-7-8-7---7-8/10---------------------
G----4-5-7---------------------------------9----------------------------
D5-7--------------------------------------------------------------------
A-----------------------------------------------------------------------
E-----------------------------------------------------------------------

e--------------------------------------------10-8-7h8p7---10-8-7--------
B10-8-10-8-7/8-8-----7-8-10-8-7-------7h8/10------------8--------8/10---
G----------------7-9------------9-7-9-----------------------------------
D-----------------------------------------------------------------------
A-----------------------------------------------------------------------
E-----------------------------------------------------------------------

e10-8-7h8p7--10-8-7----10-8-7h8p7-10-8-7-------------12-10-9-10-9--------------
-
B----------8-------8/10----------8------8/10-10/12-12------------12-12b14r12-10
-
G------------------------------------------------------------------------------
-
D------------------------------------------------------------------------------
-
A------------------------------------------------------------------------------
-
E------------------------------------------------------------------------------
-

A     F#m        D          E
bakit bakit ba iniwan mong nag iisa
A      F#m          D           E
bakit bakit ba sa akin bay nag sawa na
 D          E          D        E
sinusunod naman kita kahit ano kinakaya
 D           E
wala paring kwenta
       A-F#m-D-E
bakit ba?

A-F#m-D-E
A-F#m-D-E
A

thanks to my gf Janice para sayo to.
thanks sa mga tambay sa OMART



References

Acordes para guitarra
x

Todo acerca de Siakol