Acordes para guitarra

Indice Selffles

guitartabs

     Bottom Line tab by Selffles




Bottom Line Tab


Artist: Selffles
Song: The Bottom Line
Album: Untitled
Tabbed by: Sonja Dohm
Tuning: drop D

Intro:
E------------------------------------------------------------------------------
-----------|
B------------------------------------------------------------------------------
-----------|
G------------------------------------------------------------------------------
-----------|
D----7--7--7--7--7----7--7--7--7--7----11-11-11-11-11----12--12--12--12--------
-----------|
A----5--5--5--5--5----0--0--0--0--0----9--9--9--9--9-----10--10--10--10--------
-----------|
D----5--5--5--5--5----0--0--0--0--0----9--9--9--9--9-----10--10--10--10--------
-----------|


Verse:
E------------------------------------------------------------------------------
-----------|
B------------------------------------------------------------------------------
-----------|
G------------------------------------------------------------------------------
-----------|
D----7--7--7--7--7----7--7--7--7--7----11-11-11-11-11----12--12--12--12--------
-----------|
A----5--5--5--5--5----0--0--0--0--0----9--9--9--9--9-----10--10--10--10--------
-----------|
D----5--5--5--5--5----0--0--0--0--0----9--9--9--9--9-----10--10--10--10--------
-----------|


Chorus:
E------------------------------------------------------------------------------
-----------|
B------------------------------------------------------------------------------
-----------|
G------------------------------------------------------------------------------
-----------|
D----0--0--0--0--0----5--5--5--5--5----1--1--1--1--1----3--3--3--3--3----------
-----------|
A----0--0--0--0--0----5--5--5--5--5----1--1--1--1--1----3--3--3--3--3----------
-----------|
D----0--0--0--0--0----5--5--5--5--5----1--1--1--1--1----3--3--3--3--3----------
-----------|


Guitar 2 plays this the whole song:
E------------------------------------------------------------------------------
-----------|
B------------------------------------------------------------------------------
-----------|
G------------------------------------------------------------------------------
-----------|
D----11---11p12--11------12----12p14--12---------------------------------------
-----------|
A-------9-------------------10-------------------------------------------------
-----------|
D------------------------------------------------------------------------------
-----------|


--> play intro and chorus with distortion.

If there's anything wrong with it (which there probably is) Just e-mail me at p



References

Acordes para guitarra
x

Todo acerca de Selffles