Acordes para guitarra

Indice Samael

guitartabs

     Rain tab by Samael




Rain Tab


   911Tabs.Com

                                  Rain
                                 Samael
Tabbed by Chris Lafser
I had a lil bit of trouble reading Chris's handwriting so this tab may not be






D-----------------------------------------------------------------------
A-----------------------------------------------------------------------
F-----------------------------------------------------------------------
C---------------------------------------8--9----------------------------
G---1-----------------1-----------------6--7----------------------------
D------3--1--0--1--3-----3--1--0--1--0----------------------------------


         A
D---||-------------------------------------|----------------------------
A---||-------------------------------------|----------------------------
F---||*------------------------------------|----------------------------
C---||*--8--9------------------------------|----------------------------
G---||---6--7--------7--10--7--------------|----------------------------
D---||---------0--0------------0--0--3--2--|----------------------------



D---------------------------------------------||--------|---------------
A---------------------------------------------||--------|---------------
F--------------------------------------------*||--------|---------------
C---------8--9---------------------------10--*||--8--9--|---------------
G---------6--7--------7--10--7-----------8----||--6--7--|---------------
D---0--0--------0--0---------------0--0-------||--------|---------------


    A 4 Times      B
D---------------|--------------------------|----------------------------
A---------------|--------------------------|----------------------------
F---------------|--------------------------|----------------------------
C---------------|--------------------------|----------------------------
G---------------|--5--5--5--5--5--5--5--5--|----------------------------
D---------------|--3--3--3--3--3--3--3--3--|----------------------------


                                          Bass part         B
D--------------------------------------|-----------------|--------|-----
A--------------------------------------|-----------------|--------|-----
F--------------------------------------|-----------------|--------|-----
C---------------------------8--9--8--9\|-----------------|--------|-----
G---9--9--9--9--9--9--9--9--6--7--6--7-|-----------------|--------|-----
D---7--7--7--7--7--7--7--7-------------|-----------------|--------|-----


    A 4 Times         B
D------------------|--------|--------------------------|----------------
A------------------|--------|--------------------------|----------------
F------------------|--------|--------------------------|----------------
C------------------|--------|--8--8--8--8--8--8--8--8--|----------------
G------------------|--------|--6--6--6--6--6--6--6--6--|----------------
D------------------|--------|--------------------------|----------------



D-----------------------------------|-----------------------------------
A-----------------------------------|-----------------------------------
F-----------------------------------|-----------------------------------
C---11--11--11--11--11--11--11--11--|-----------------------------------
G---9---9---9---9---9---9---9---9---|-----------------------------------
D-----------------------------------|-----------------------------------


         C
D---||------------------------------------------------|-----------------
A---||------------------------------------------------|-----------------
F---||*-----------------------------------------------|-----------------
C---||*--------------------5--5--5--5--5--5--5--------|-----------------
G---||---2--2--2--2--5--5--3--3--3--3--3--3--3--5--4--|-----------------
D---||---0--0--0--0--3--3-----------------------3--2--|-----------------


                                                  4x
D---------------------------|---------------------||--------------------
A---------------------------|---------------------||--------------------
F---------------------------|--------------------*||--------------------
C---------------------------|--7--7--7--7--7--4--*||--------------------
G---2--2--2--2--5--5--5--5--|--5--5--5--5--5--2---||--------------------
D---0--0--0--0--3--3--3--3--|---------------------||--------------------


                            B        A
D------------------------|--------|--------|----------------------------
A------------------------|--------|--------|----------------------------
F------------------------|--------|--------|----------------------------
C---7--7--7--7--7--8--9--|--------|--------|----------------------------
G---5--5--5--5--5--6--7--|--------|--------|----------------------------
D------------------------|--------|--------|----------------------------


                                       A 2 Times      B
D-----------------------------------|--------------|--------|-----------
A-----------------------------------|--------------|--------|-----------
F-----------------------------------|--------------|--------|-----------
C---8--9--------10--10--10--10--10--|--------------|--------|-----------
G---6--7--------8---8---8---8---8---|--------------|--------|-----------
D---------0--0----------------------|--------------|--------|-----------


    C 4 Times
D------------------|--||---------|--------|--------|--------------------
A------------------|--||---------|--------|--------|--------------------
F------------------|--||*--------|--------|--------|--------------------
C------------------|--||*--------|--------|--------|--------------------
G------------------|--||---2-----|--------|--------|--------------------
D------------------|--||---0--3--|--------|--------|--------------------


                                       3x
D----------------||--||----------------||------------------||-----------
A----------------||--||----------------||------------------||-----------
F---------------*||--||*--------------*||-----------------*||-----------
C---------------*||--||*--------------*||-----------------*||-----------
G---5-----7------||--||------2--2--2---||-----5-----7------||-----------
D---3--3--5--3---||--||---3--0--0--0---||--3--3--3--5--3---||-----------


         D
D---||---------------------------------------|--------------------------
A---||---------------------------------------|--------------------------
F---||*--------------------------------------|--------------------------
C---||*--8--9--------------------------------|--------------------------
G---||---6--7--------------------------------|--------------------------
D---||---------0--0--8--7--0--7--5--0--5--7--|--------------------------


                                               4x
D----------------------------------------------||-----------------------
A----------------------------------------------||-----------------------
F---------------------------------------------*||-----------------------
C---------8--9--------------------------------*||-----------------------
G---------6--7--------------------------9h10---||-----------------------
D---0--0--------0--0--8--7--0--7--5--0---------||-----------------------


    E
D--------------------------|-------------------------|------------------
A--------------------------|-------------------------|------------------
F--------------------------|-------------------------|------------------
C--------------------------|-------------------------|------------------
G---5/7--7--7--7--7--7--7--|--5/7--7--7--7--7--5--4--|------------------
D---3-5--5--5--5--5--5--5--|--3-5--5--5--5--5--3--2--|------------------


    D 4 Times         E        C 4 Times
D------------------|--------|-----------------|-------------------------
A------------------|--------|-----------------|-------------------------
F------------------|--------|-----------------|-------------------------
C------------------|--------|-----------------|-------------------------
G------------------|--------|-----------------|-------------------------
D------------------|--------|-----------------|-------------------------


                            C 4 Times
D------------------------|-----------------|--------------------|-------
A------------------------|-----------------|--------------------|-------
F------------------------|-----------------|--------------------|-------
C---7--7--7--7--7--------|-----------------|--7--7--7--7--7--4--|-------
G---5--5--5--5--5--5--4--|-----------------|--5--5--5--5--5--2--|-------
D------------------3--2--|-----------------|--------------------|-------



D------------------------||---------------------------------------------
A------------------------||---------------------------------------------
F------------------------||---------------------------------------------
C---7--7--7--7--7--8--9--||---------------------------------------------
G---5--5--5--5--5--6--7--||---------------------------------------------
D------------------------||---------------------------------------------




========================================================================
==                       TABLATURE EXPLANATION                        ==
========================================================================

----------                ----------                ----t---
----5h8--- Hammeron       ----(8)--- Ghost          ----6--- Tap
----------                ---------- Note           --------
----5p8--- Pulloff        ----------                --------

----------                ----------                -----p--
----5/8--- Slide Up       -----x---- Dead           -----7-- Pop
----------                ---------- Note           --s-----
----5\8--- Slide Down     ----------                --5----- Slap

----------                ||------|| Repeat         --------
----5~~~-- Vibrato        ||*----*||                ---5^--- Bend
----------                ||*----*||                --------
----------                ||------||                --------

----------                ----------                --------
-4:------- Time           ----------                --------
-4:------- Signature      ----------                --------
----------                ----------                --------

Rhythm:
  w = whole note            W = dotted whole
  h = half note             H = dotted half
  q = quarter note          Q = dotted quarter
  e = eighth note           E = dotted eighth
  s = sixteenth note        S = dotted sixteenth
  t = 32nd note             T = dotted 32nd
  x = 64th note             X = dotted 64th
  ^ = triplet

========================================================================
==            Created with a demo version of BUCKET O' TAB            ==
==              tablature creation software for Windows               ==
========================================================================



References

Acordes para guitarra
x

Todo acerca de Samael