Acordes para guitarra

Indice Sahara Hotnights

guitartabs

     Hot Night Crash tab by Sahara Hotnights




Hot Night Crash Tab


Hotnight Crash
Sahara Hotnights

This song is for shizzle! jk. its simple and quick so here we go.

Intro/Chorus
e------------------------------------------------|
B------------------------------------------------|
G--------10-11-----13----------------------------|all x 2
D-11-----10-11-x3--13-x3-------------------------|
A-11-x4--8--9------11----------------------------|
E-9----------------------------------------------|

the cool thingy   !!!(this is played on the 2nd run on the laST 3 powerchords
and it is not played in the intro)!!!
e------------------------------------------------|
B------------------------------------------------|
G-15-15-13~--------------------------------------|
D------------------------------------------------|
A------------------------------------------------|
E------------------------------------------------|

e------------------------------------------------|
B------------------------------------------------|
G-15-----10-11-----13----------------------------|
D-15-x4--10-11-x3--13-x3-------------------------|
A-13-----8--9------11----------------------------|
E------------------------------------------------|

e------------------------------------------------|
B------------------------------------------------|
G--------13--------------------------------------|
D-11-x8--13-x8-----------------------------------|
A-11-----11--------------------------------------|
E-9----------------------------------------------|

The cool bendy thing   !!!(this is not played in the intro)!!!
e------------------------------------------------|
B-13b-x7-----------------------------------------|
G------------------------------------------------|
D------------------------------------------------|
A------------------------------------------------|
E------------------------------------------------|



Verse
e------------------------------------------------|
B------------------------------------------------|
G-11------------11-----15-----13-----------------|all x 4
D-11-x8--11-x8--11-x8--15-x4--13-x4--------------|
A-9------11-----9------13-----11-----------------|
E--------9---------------------------------------|



Bridge
e------------------------------------------------|
B------------------------------------------------|
G-11------13-------------------------------------|all x 2
D-11-x16--13-x16---------------------------------|
A-9-------11-------------------------------------|
E------------------------------------------------|

Other cool thingy   !!!(Played the 2nd run on the 25th powerchord)!!!
e-13-13-11-11------------------------------------|
B-------------13-13------------------------------|
G-------------------13---------------------------|
D------------------------------------------------|
A------------------------------------------------|
E------------------------------------------------|

And the other cool thingy
e------------------------------------------------|
B-11-11--9~--------------------------------------|
G-15-15-13~--------------------------------------|
D------------------------------------------------|
A------------------------------------------------|
E------------------------------------------------|

Solo   !!!(Solo is played twice)!!!
e------------------------------------------------|
B------------------------------------------------|
G-------10---------------------------------------|all x 3
D-11-11-10-11-----10-----8--8--8--8--6--6--6--6--|
A-11-11-8--11-----10-----8--8--8--8--6--6--6--6--|
E-9--9-----9------8------6--6--6--6--4--4--4--4--|

e------------------------------------------------|
B------------------------------------------------|
G--------13--------------------------------------|
D-11-----13-x8-----------------------------------|
A-11-x8--11--------------------------------------|
E-9----------------------------------------------|



Outro   !!!(Played twice)!!!
e------------------------------------------------|
B------------------------------------------------|
G--------10-11-----13----------------------------|all x 2
D-11-----10-11-x3--13-x3-------------------------|
A-11-x4--8--9------11----------------------------|
E-9----------------------------------------------|

e------------------------------------------------|
B------------------------------------------------|
G-15-----10-11-----13----------------------------|
D-15-x4--10-11-x3--13-x3-------------------------|
A-13-----8--9------11----------------------------|
E------------------------------------------------|

Tabbed by t-unit



References

Acordes para guitarra
x

Todo acerca de Sahara Hotnights