Acordes para guitarra

Indice Rustic Overtones

guitartabs





Song:Gas on Skin
Artist: Rustic Overtones
Album: Volume Up (Ep)

Tuning: standard (EADG)

Intro:
G----------
D----------
A----------
E--1/12\7--

Verse:
G-------------------------------------------------------
D------------9-7----------------------------------------
A------7h9h7-----9-7-5----------------------------------
E--7-7--------------------------------------------------

Chorus:
G-------------------------------------------------------
D-------------------------------------------------------
A--12-11-10-9-(x3)-5-6-7-8-(x3)-12-11-10-9--------------
E-------------------------------------------------------

key:
 /-slide up
 \-slide down
 h-hammeron

that's it...just listen for placement...questions, comments, corrections, 
Acordes para guitarra
x

Todo acerca de Rustic Overtones