Acordes para guitarra

Indice Rosendo

guitartabs

===================================================
| Rosendo                                         |
| POR CIERTO                                      |
| Rosendo                                         |
| A tientas y barrancas (1998)                    |
===================================================

INTRO


(Mi m)
-----------------------------------------------
-----------------------------------------------
-----------------------------------------------
-----------------------------------------------
-----------------------------------------------
-0-0--X-X-0--0-X-0-0-X-0-0-0-0-----------------






Em                                      C
Ni presunto, ni confeso, ni te pienso delatar 

Em                                                      C 
pero a mí me gusta el chocolate espeso con bizcochos pa mojar 

Em                                          C        G
ya te venderán otros al peso y te podrán a parir 

A                            E    G     Bb       F#  
¿Sabes lo que quiero decir?.            Por cierto... 

Hace muy lo propio de la vida padre , de la ley del tutiplén 
camuflarse en el desmadre y desbocarse de lo bien 
para darse el piro ya sé que es muy tarde, pero qué pinto yo aquí? 
Tiene que llegar el dos mil 
¿Sabes lo que quiero decir?. Por cierto... 

Con esa sonrisa que se huele a alpaca y una jaca marbellí 
las campanas repicando, jode que jode, a que sí? 
No te muestres tan iluso, ni confuso y mucho menos servil 
tiene que llegar el dos mil 
¿Sabes lo que quiero decir?. Por cierto... 

No se te escape la risa, ni lento ni deprisa, ten con ten 
Antes de pedir socorro, mira al resto, todo a cien 
sin pasar la gorra ni apretar el morro, sin culpar al alguacil 
Tiene que llegar el dos mil, por cierto... 

Mamá, papá, que este me ha mirado mal, que me quieren hacer rabiar 
Dime tú si no es demasiado grueso, para un seso lo normal 
déjame la cabra y llevaté tú el queso, por exceso o porque si? 
Tiene que llegar el dos mil 
¿Sabes lo que quiero decir?. Por cierto... 



Solo

-------------------------------------------------------------
-------------------------------------10-9^9------------------
----------------------------------------------11-9-11^11^11--
-4-----------------------------9^9~~~------------------------
----0^0-4^4----2/6--7/11--9^9--------------------------------
-2-----------------------------------------------------------


Simbología:

Vibrato: ~
Ligado:  x^x
Slide:   x/x

Bueno 'rosenderos' o komo me dijeron una vez por la kalle,
'leñador' por el tema de Leño xD; si teneis al guna duda

===================================================
Colaboracion de hiperock



Acordes para guitarra
x

Todo acerca de Rosendo