Acordes para guitarra

Indice Rosendo

guitartabs

===================================================
| Rosendo                                         |
| DEL PULMON                                      |
| Rosendo Mercado                                 |
| Jugar al gua (1988)                             |
===================================================

INTRO:  F            C   A#  F      A#  C
e |----6^5---6^5--------------------------|
B |-------6-----6---5-5--3----------3-3-5-|
G |--------5-----5--5-5--3----2--22-3-3-5-|
D |-----------------5-5--3----3--33-3-3-5-|
A |---------------------------3--33-1-1-3-|
E |-------------------------1---1---------|

Se repite las secuencia dos veces.

LETRA:
F         A#
Con poco más 
C
de lo que tienes
F               A#   C
y algo que te ponga yo
F           A#
Compras la sal
C
y luego vienes
F           A#    C
y me pagas el favor

INTRO-
F         A#
Vienes y vas
C
y te entretienes
F             A#     C         
yo fumandome un cartón
F           A# 
bailas al son 
C
que te conviene
F           A#
yo me enfermo 
C
del pulmón
F       C      D    A#
Que desastre somos dos
F      A#         C
uno quiere y otro no
F      A#         C
Que desastre somos dos
F      A#         C
uno quiere y otro no
F      A#         C
INTRO-
F      A#         C
Que desastre somos dos
F      A#         C
uno quiere y otro no
F      A#         C
Que desastre somos dos
F      A#         C
uno quiere y otro no

SOLO- (no he tenido tiempo de sacarlo todavía pero todo llegará, empieza así:)
e |----------------...-------------...--|
B |--b8^6------6-8-...-------------...--|
G |------7--5h7----...--improvisa--...--|
D |----------------...-------------...--|
A |----------------...-------------...--|
E |----------------...-------------...--|

INTRO-

Uno quiere y otro no

uno quiere y otro no

etc, etc,...

Esto es todo, lo que tiene esta bonita canción es el solo, lo demás es muy facil.
b:bend 
h:hammer
Si teneis alguna duda o quereis hacer algún comentario escribidme a mi dirección.
Un saludo y seguid sacando canciones.

===================================================
Colaboracion de Ignacio Herrero Mardomingo



Acordes para guitarra
x

Todo acerca de Rosendo