Acordes para guitarra

Indice Rosendo

guitartabs

===================================================
| Rosendo                                         |
| CORAZON                                         |
| Rosendo Mercado                                 |
| Loco por incordiar (1985)                       |
============================================TAB====

Aquí esta una canción cojonuda de Rosendo y que nadie había sacado:

Intro:

RIFF 1:
|-------------------------|
|-------------------------|
|-------------------------| x3
|-7-7-7/7-7-7/5-5-5/4-4-4-|
|-5-5-5/4-4-4/2-2-2/2-2-2-|
|-------------------------|

RIFF 2:
|--------------------------------------------------|
|--------------------------------------------------|
|--------------------------------------------------|
|-------------2-2---------------2-2-2-4-2--2-2-2-4-|
|-5-5-5/5-5-5/2-2-2-4-2-5-4-2-4-0-0-0-0-0--0-0-0-0-|
|-3-3-3/2-2-2/0-0-0-0-0-0-0-0-0--------------------|

RIFF 3:
|----------------------------------------------------------
|----------------------------------------------------------
|-------------------9-9-9----------------------------------
|-7-7-7/7-7-7/5-5-5/9-9-9-9-9-9-7-7-7/7-7-7/7-7-7-2-2-2-4-2
|-5-5-5/4-4-4/2-2-2/7-7-7-9-9-9-5-5-5/4-4-4/5-5-5-0-0-0-0-0
|-------------------------7-7-7----------------------------

---------|
---------|
---------|
-2-2-2-4-|
-0-0-0-0-|
---------|

El tio hace el riff 1, hasta cuando empieza con lo 
de “tengo que darte siempre la razón...” que hace 
el riff 2.
Y es en la parte del estribillo cuando hace el 3.
El solo que he sacado no me convence demasiado, así 
que cuando lo perfeccione lo mando.

Letra:
Eres 
mi carta de navegación 
puedes 
tenerme a tu disposición 
sabes 
que soy cuenta pendiente de tu colección 
tengo que darte siempre la razón. 

Dices 
que sabes lo que haces en cada ocasión 
quieres 
tener entre las manos la situación 
vives 
por ser en cada caso el centro de atención 
tengo que darte siempre la razón. 

Ya hueles, corazón 
búscate a otro ahora porque yo 
no viviré para ti 
ya no viviré para ti 
que no viviré para ti. 

Eres 
la causa que me trajo aquí 
puedes 
hacer que se me olvide sonreir 
sabes 
que vivo una novela de ciencia ficción 
tengo que darte siempre la razón. 

Dices 
que pones de tu parte toda la ilusión 
quieres 
dejar fuera de juego la imaginación 
vives 
pensando que no suena más que tu canción 
tengo que darte siempre la razón. 

Ya hueles, corazón 
búscate a otro ahora porque yo 
no viviré para ti 
ya no viviré para ti 
que no viviré para ti. 

Tabulado dedicado a Eva, tu que me inspiras,a ver
si te gusta cuando me oigas...
Para cualquier comentario o duda escribid a mi 
dirección.

===================================================
Colaboracion de Ignacio Herrero Mardomingo



Acordes para guitarra
x

Todo acerca de Rosendo