Acordes para guitarra

Indice Rory Gallagher

guitartabs

var	lcnt		=	75;
chords["D"]= "xx0232";
freds["D"]= "1";
alts["D"]= "......";
chords["A"]= "x02220";
freds["A"]= "1";
alts["A"]= "......";
chords["C"]= "x32010";
freds["C"]= "1";
alts["C"]= "3.....";
chords["G"]= "320003";
freds["G"]= "1";
alts["G"]= "......";
chords["B"]= "x2444x";
freds["B"]= "1";
alts["B"]= "2....2";
chords["F#m"]= "244222";
freds["F#m"]= "1";
alts["F#m"]= "......";
chords["Em"]= "022000";
freds["Em"]= "1";
alts["Em"]= "......";
chords["Bm"]= "x24432";
freds["Bm"]= "1";
alts["Bm"]= "2.....";


Signals by Rory Gallagher (Album: „Jinx")
Tabbed by: Tina Schmidt

Intro + bridge:

E|--------------------|-------------------|
B|--------------------|-------------------|
G|--------------------|-------------------|
D|------4-5-5-4h5p4---|-------------------|
A|--5-7-------------7-|-----4-5-5-4h5p4---|
E|--------------------|-5-7-------------7-|


E|-------------------------|-------------------------|
B|-------------------------|-------------------------|
G|-------------------------|---------------------0-0-|
D|-------------------------|---------------------2-2-|
A|-----5-----5-----5-----5-|-----5-----5-----5---2-2-|
E|-333---333---333---333---|-333---333---333---------|

Verse 1:
 Who's that callin' way out there?
 I've got your signal loud and clean.
 In the distance a light is near.
 Through the night sharp as a spear.

 My mind sees all the things my    eyes can't see!
 What are you trying to     say to me?


Bridge x2 ..... I got your signals ..... Feel your signals .....

Verse 2:
 Everything seems very strange,
 An' now you're not that far away.
 I feel so calm, I don't feel fear.
Behind that light, I know you're there!

 My ears hear sounds I've never     heard before!
 Tell me what you've really      come here for!


Bridge x2 ..... I got your signals ..... Feel your signals .....


Solo (sorry, I can't figure it out) play: D ... A ... C ... G or the brigde!


Interlude:
There's a beacon flashin'               in the distant night. 
Don't feel time passing             right before my eyes.


Verse 3:
 Is my dreaming beyond control?
 I feel these movements here below.
 Is this the end or is that more?
 I'll stay suspended for evermore.

 My eyes hear all the things my heart can't see.
 What are you trying to do to me?


Bridge x2 ..... I got your signals ..... Feel your signals .....
Interlude


Verse 4:
 Who's that callin' from way out there?
 I got your signals loud and clear.
 In the distance, I know you're there.
 Through the night sharp as a spear.

 My mind sees all the things my     eyes can't see.
 What are you trying to     say to me?


Bridge

End on D

Hope you'll enjoy it! Great song ... great music ... great musician!!!!
I've found the chords at bluesrock.de.vu/rgtab.htm - Have a look!
Acordes para guitarra
x

Todo acerca de Rory Gallagher