Acordes para guitarra

Indice Rolling Stones

guitartabs





ROLLING STONES - ROUGH JUSTICE
(Jagger/Richards)

Tabber: Mord_Wraith
Date: 9/7/2005

Tuning (low to high): EADGBE

Intro:

Improvise over D5 by playing...

E|-------------------------------------|
B|---x-x-x-3---x-x-x-x---3-3-3-3-------|
G|---x-x-x-2---x-x-x-x---4p2-2-2-------| etc.
D|---x-x-x-0---x-x-x-x---0-0-0-0-2-3---|
A|-------------------------------------|
E|-------------------------------------|

Make it sound bluesy!! That's all they play until the chorus, just change it up and have fun.

Chorus:

E|-----------------|
B|-------------3---|
G|---0-0-0-----2---| "It's rough justice on ya..."
D|---0-0-0-----0---|
A|---x-x-x-2-3-----|
E|---3-3-3---------|

---

Yes, it's repetitive, but play this with an entire band and it'll rock! It's a typical 
Acordes para guitarra
x

Todo acerca de Rolling Stones