Acordes para guitarra

Indice Rocky Votolato

guitartabs

var	lcnt		=	73;
chords["Eb"]= "x43121";
freds["Eb"]= "3";
alts["Eb"]= "4.....";
chords["Ab"]= "xx1114";
freds["Ab"]= "1";
alts["Ab"]= "......";
chords["Db"]= "x43121";
freds["Db"]= "1";
alts["Db"]= "4.....";
chords["Gb"]= "244322";
freds["Gb"]= "1";
alts["Gb"]= "......";
chords["Bb"]= "x1333x";
freds["Bb"]= "1";
alts["Bb"]= "1....1";
chords["eb"]= "x43121";
freds["eb"]= "3";
alts["eb"]= "4.....";
sk_chords["eb"]	=	"(3 fr.)";chords["G"]= "320003";
freds["G"]= "1";
alts["G"]= "......";
chords["C"]= "x32010";
freds["C"]= "1";
alts["C"]= "3.....";
chords["D"]= "xx0232";
freds["D"]= "1";
alts["D"]= "......";
chords["Em"]= "022000";
freds["Em"]= "1";
alts["Em"]= "......";
chords["B"]= "x2444x";
freds["B"]= "1";
alts["B"]= "2....2";
chords["Am"]= "x02210";
freds["Am"]= "1";
alts["Am"]= "......";
chords["h"]= "x2444x";
freds["h"]= "1";
alts["h"]= "2....2";


----------------------------------------------------------------------------
                      I'll Catch You-Rocky Votolato
----------------------------------------------------------------------------

Tabbed by:sether


for this song at the end of some of the c notes during the verse he plays this

D|--------2
A|---3h5---

and for D's during the verse its 

e|--0h2---h3

the days behind you are haunting / the ones your living in now / the ghost 
of your past carries / the weight of your name / where would you be who are 
you / without the scaring and the heals that stepped on you / that you 
cling to with all of your strength / 
let go - freefall - it's scary I know   
to forgive all of the devils / let go - i'll catch you / It's scary I know 
to understand what must be done

(this time through its palm muted)

58 guthrie street / an old postcard you sent / to help close up wounds that 
I love to reopen / quarters in the tequila / on the streets of houston / 
you can keep on drinking / but never drown out where you've been /
let go - freefall - it's scary I know to forgive all of the devils / let  
go - i'll catch you / It's scary I know to understand what must be done 

(during this part the B' and Am's are kinda picked in certain spots)


there is a statesman servant beneath / the thick skin of remembering / 
armor for protection / 

e|-------------------------------------------------------2--------0h2---=----|
B|-------------------------------------------------------3--------3----------|
G|-------------------------------------------------------2-------2-----------|
D|-------------------------9^----------------------------0------0------------|
A|--/10-9-7-----------7--------------5---------5-----------------------------|
E|----------7--7-7h10---7------3-5h7---5-7p5-3-------------------------------|


let go - freefall - it's scary I know to forgive all 
of the devils / let go - i'll catch you / It's scary I know to understand 

what must be done

THE END


| /  slide up
| \  slide down
| p  pull-off
| ~  vibrato
| +  harmonic
| x  Mute note
Acordes para guitarra
x

Todo acerca de Rocky Votolato