Acordes para guitarra

Indice Rockdrigo Gonzalez

guitartabs

===================================================
* Rockdrigo Gonzalez                              *
* DISTANTE INSTANTE                               *
* Rodrigo Gonzalez                                *
* Hurbanistorias (1984)                           *
===================================================

DISTANTE INSTANTE (Nota: este es el título correcto)

Intro: Riff

Riff..............................
Si volviera el amor
......................................................................
Si tuviera un hermano, un amigo, un sueño en la mano
Asus			   G#sus
Moriría ese dolor de buscar el calor
       F#sus                            B7
En el cruel laberinto de ese vaso de alcohol
A			   E
De estas calles sin sol.

Riff.............................................
Si tuviera ilusiones
......................................................................
Si existieran razones, mentiras, locuras, pasiones
Asus			   G#sus
No habría necesidad de pasarme por horas
F#sus                                B7
Bebiendo cantimploras de esta gris soledad
A			   E
De esta eterna ansiedad.

A		   F#m			C#m
Si pudiera borrarme esos viejos recuerdos
E			A	B			E   E7
Que como viles cuervos arrancan ya mis ojos
		    A		B			C#m
Dejando mis despojos entre historias hirientes
A		   E		   B			E
Igual de indiferentes al amor y a las gentes

Riff...................................................
Si te hubieras quedado
............................................................
Si me hubieras pedido que quemara el sonido
Asus			   G#sus
No estaría aquí metido ahogando mis entrañas
F#sus          B7
Arañando el olvido
A			E
Bien confuso y perdido

Riff...................................................
Cuando tenga la suerte
.............................................................
De encontrarme a la muerte yo le voy a ofrecer
Asus			   G#sus
Todo el tiempo vivido  y este vaso henchido
F#sus			  B7
Por un distante instante
A			E
Un instante de olvido.


Si pudiera borrarme...(se repite)

Riff

Tonalidad Mi mayor
E-----------------------------------------------------------I
B-----------------------------------------------------------I
G-----------------------------------------------------------I
D-----------------2---4------------------2---4---6---7---9--I
A------2---2---2--------------2---2---2---------------------I
E-0-----------------------0---------------------------------I
     					Si volviera  el amor        
							Si tuviera 
							Un hermano
								Un amigo
								Un sueño en la mano

Arpegiado

  Bsus
E----------0-----------------------0----------------I
B-------0-----0-----------------0-----0-------------I
G-----8----------8-----8-----8-----------8-----8----I
D--9----------------9-----9-----------------9-------I
A---------------------------------------------------I
E---------------------------------------------------I


   Asus
E-----------0-----------------------0---------------I
B--------0-----0-----------------0-----0------------I
G-----6-----------6-----6-----6-----------6-----6---I
D--7-----------------7-----7-----------------7------I
A---------------------------------------------------I
E---------------------------------------------------I

    G#sus				F#sus
E------------0-------------------------0---------------I
B---------0-----0-------------------0-----0------------I
G------4-----------4-----4-------2-----------2-----2---I
D---6-----------------6-------4-----------------4------I
A------------------------------------------------------I
E------------------------------------------------------I


ACORDES

   Bsus  Asus  G#sus  F#sus   B7
E----0----0------0------0-----2----I
B----0----0------0------0-----0----I
G----8----6------4------2-----2----I
D----9----7------6------4-----1----I
A----X----X------X------X-----2----I
E----X----X------X------X-----X----I

===================================================
Colaboracion de Pedro Tello García



Acordes para guitarra
x

Todo acerca de Rockdrigo Gonzalez