Acordes para guitarra

Indice Robi Draco Rosa

guitartabs

===================================================
* Robi Draco Rosa                                 *
* BLANCA MUJER                                    *
* ---???---                                       *
* Vagabundo (1995)                                *
============================================TAB====

Robi Rosa*Guitarra para "Blanca Mujer"Intro
----0---|---0------------------------------|
-0------|-0----3-1-0--------0--------------| 
--------|-------------2--0-----2-----------|
--------|-------------------------3--2h3p2-|
--------|----------------------------------|
--------|----------------------------------|En algunas partes hace esto.
                               
---------------------------------------------------------|
---------------------------------------------------------|
-12--11--9--7----------7-h9-p7-9~~~~--------------------.|
---------------9--7--9----------------------------------.|
---------------------------------------------------------|
---------------------------------------------------------|
~~~~~~~~~~~~~~~~~~~~~~~~~~~~~~~~~~~~~~~~~~~~~~~~~~~~~~~~~~~~~~~~~~~~~~~
Yo le incluiria esto versos de guitarra, porque hace la cancionmas sentimental.
-------------------------------------------------------|
-------------------------------------------------------|
--11--9--11-12/14-12-11--------11--9~~~~~--------------|
------------------------12--9--------------------------|
-------------------------------------------------------|
-------------------------------------------------------|
Con estas notas se puede alternar para lograr una buena melodia detras del piano.
--------------------------------------------------


===================================================
Colaboracion de Anibal De Jesus



Acordes para guitarra
x

Todo acerca de Robi Draco Rosa