Acordes para guitarra

Indice Robi Draco Rosa

guitartabs

===================================================
| Robi Draco Rosa                                 |
| TU TREN SE VA                                   |
| Robi draco rosa                                 |
| ---???--- ()                                    |
============================================BAS====

hola amigos
aqui esta el bajo de tu tren se va
es muy facil
se escucha mas vacano con distorcion en el bajo 
y ligado cuando pasa de 8 a 1

Armadura de Fm
Clave de F Compás de 4/4 

R: Redonda		%: Silencio corchea
N: Negra		*: Silencio redonda
C: Corchea		0: Ligadura
S: Semicorchea		|: marcador de compás
:|| Repite              -: ligado


Estrofas y armónica

G|---------------|-----------------||
D|---------------|-----------------||
A|---------------|-----------------||
E|---1—x—1-2-2-2-|--1—x—1-2-2-x-2--||
     N %.S C C -     N % S C C % C

G|---------------|-----------------:||
D|---------------|-----------------:||
A|---------------|-----------------:||
E|---8—x—8-9-9-9-|--8—x—8-9-9-x-9--:||
     N %.S C C -    N % S C C % C


Coro y dos ultimas armónicas:

G|-------------|--------------|
D|-------------|--------------|
A|-------------|--------------|
E|---6-6-6-6---|----6-6-6-6---|
     N N N N        N N N N 
     Tu....................

G|-------------|--------------|
D|-------------|--------------|
A|-------------|--------------|
E|---4-4-4-4---|----4-4-4-4---|
     N N N N        N N N N
     Tren..................

G|-------------|--------------|
D|-------------|--------------|
A|-------------|--------------|
E|---2-2-2-2---|----2-2-2-2---|
     N N N N        N N N N
     Se....................

G|-------------|--------------:||
D|-------------|--------------:||
A|-------------|--------------:||
E|---1-1-1-1---|----1-1-1-1---:||
     N N N N        N N N N
     Va....................

Final del coro

G|-------|-------||
D|-------|-------||
A|-------|-------||
E|---1---|---x---||
     R       *
     Va.

Si no entiendes de figuras
(parte de abajo de cada tablatura)
no importa eso es para los que saben
leer pentagrama si tú no sabes
solo mira los números y ya

Errores, favores
avicenme

===================================================
Colaboracion de angelo manuel araujo



Acordes para guitarra
x

Todo acerca de Robi Draco Rosa