Acordes para guitarra

Indice Roberto Carlos

guitartabs

===================================================
| Roberto Carlos                                  |
| JESUCRISTO                                      |
| Roberto Carlos                                  |
| ---???--- ()                                    |
============================================BAS====

hola esta es mi primera transcripcion aqui en el atame espero que les guste
esto se lo toca como intro y en las estrofas
G----------------------------------------------
D------222222-------4--555555--------7--999999-
A------------2---------------5----------------9
E----------------------------------------------
LUEGO SE HACE UNA PEQUEÑA ESCALA ASI
G----------------------------------------------
D------9999----------7---------5----------2----
A----------------------------------------------
E----------------------------------------------
Y EN EL CORO
G----------------------------------------------
D-----2222--------4---5555--------7---99999----
A---------2---------------5----------------9---
E----------------------------------------------

G----------------------------------------------
D----9999---------7777-------------------------
A--------9------------7------------------------
E----------------------------------------------

BUENO ESPERO QUE LES GUSTE CUALQUIER SUGERENCIA A MI CORREO

===================================================
Colaboracion de eduardo reyes



Acordes para guitarra
x

Todo acerca de Roberto Carlos